Guitar Tabs for The Curious Smile

The Curious Smile

Intro x2
E|--------------------------------------------------------------------------------------------------
B|--------------------------------------------------------------------------------------------------
G|--------------------------------------------------------------------------------------------------
D|-----------5--------5--------------10-------10-------------3--------3-----8--------8---------8\7--
A|-----------3--------3--------------8--------8--------------1--------1-----6--------6---------6\5--
D|--0--------3--------3-----0--------8--------8-----0--------1--------1-----6--------6---------6\5--

Verse x3
E|--------------------------------------------------------------------------------------------------
B|--------------------------------------------------------------------------------------------------
G|--------0--------0--------------0--------0--------------0--------0--------------0--------0--------
D|--------------------------------------------------------------------------------------------------
A|-----3--------3--------------10-------10-------------1--------1--------------1--------1-----------
D|--3--------3-----------8--10-------10-------0-----1--------1-----------0--1--------1--------0--1--

x1
E|--------------------------------------------------------------------------------------------------
B|--------------------------------------------------------------------------------------------------
G|--------0--------0--------------0--------0--------------------------------------------------------
D|--------------------------------------------------------------------------3--------3---------3/5--
A|-----3--------3--------------10-------10----------------------------------1--------1---------1/3--
D|--3--------3-----------8--10-------10-------0-----1-----------------------1--------1---------1/3--

Chorus x1
E|--------------------------------------------------------------------------------------------------
B|--------------------------------------------------------------------------------------------------
G|---------------------------------------------------------------------------2h3-----2--------------
D|--7--------7-----7h8p7----10-------10----10h12p10\3--------3-----3h5p3-----3-----------------5/7--
A|--5--------5-----5--------8--------8-----8--------1--------1-----1---------1-----------------3/5--
D|--5--------5-----5--------8--------8-----8--------1--------1-----1---------1-----------------3/5--

E|--------------------------------------------------------------------------------------------------
B|--------------------------------------------------------------------------------------------------
G|--------------------------------------------------------------------------------------------------
D|--7--------7------7h8p7---10-------10----10h12p10\3--------3--------------3--------3---------5/7--
A|--5--------5------5-------8--------8-----8--------1--------1--------------1--------1---------3/5--
D|--5--------5------5-------8--------8-----8--------1--------1--------------1--------1---------3/5--

E|--------------------------------------------------------------------------------------------------
B|--------------------------------------------------------------------------------------------------
G|---------------------------------------------------------------------------2h3-----2--------------
D|--7--------7-----7h8p7----10-------10----10h12p10\3--------3-----3h5p3-----3-----------------5/7--
A|--5--------5-----5--------8--------8-----8--------1--------1-----1---------1-----------------3/5--
D|--5--------5-----5--------8--------8-----8--------1--------1-----1---------1-----------------3/5--

E|--------------------------------------------------------------------------------------------------
B|--------------------------------------------------------------------------------------------------
G|--------------------------------------------------------------------------------------------------
D|--7--------7------7h8p7---10-------10----10h12p10\3-----------------------------3--------3-----0--
A|--5--------5------5h------8--------8-----8--------1-----------------------------1--------1-----0--
D|--5--------5------5h------8--------8-----8--------1-----------------------------1--------1-----0--

(Just lead guitar x1)
Riff (just bass x1, then x6 [x3 with quiet drums, x3 with loud drums])
E|--------------------------------------------------------------------------------------------------
B|--------------------------------------------------------------------------------------------------
G|--------------------------------------------------------------------------------------------------
D|--------------------------------------------------------------------------------------------------
A|-----5--3--0--------------------------------3--5-----5--3--0--------------3--------5--------3-----
D|--0-----------5--6--0--6--5--3--0--3--5--6--------0-----------5--6--5--0--3--------5--------3-----

E|--------------------------------------------------------------------------------------------------
B|--------------------------------------------------------------------------------------------------
G|--------------------------------------------------------------------------------------------------
D|--------------------------------------------------------------------------------------------------
A|-----5--3--0--------------------------------3--5-----5--3--0--------------------------------------
D|--0-----------5--6--0--6--5--3--0--3--5--6--------0-----------5--6--5--0--6--5--3--0--------------

Break x1
E|--------------------------------------------------
B|--------------------------------------------------
G|--------------------------------------------------
D|--------------------------------------------------
A|--0--------0--------0--------0--------1-----------
D|--0--------0--------0--------0--------1-----------

Solo x4
E|--------------------------------------------------
B|--------------------------------------------------
G|--------------------------------------------------
D|--------------------------------------------------
A|-----------5--------5--------5--------------------
D|--0--------------0--------0--------0--1--4--1-----
(Riff x1)
Riff x1
E|--------------------------------------------------------------------------------------------------
B|--------------------------------------------------------------------------------------------------
G|--------------------------------------------------------------------------------------------------
D|--------------------------------------------------------------------------------------------------
A|-----5--3--0--------------------------------3--5-----5--3--0--------------3--------5--------3-----
D|--0-----------5--6--0--6--5--3--0--3--5--6--------0-----------5--6--5--0--3--------5--------3-----

E|--------------------------------------------------------------------------------------------------
B|--------------------------------------------------------------------------------------------------
G|--------------------------------------------------------------------------------------------------
D|--------------------------------------------------------------------------------------------------
A|-----5--3--0-----------------------------------1--------------------------------------------------
D|--0-----------5--6--0--6--5--3--0--3--5--6--0--1--------------------------------------------------

E|--------------------------------------------------
B|--------------------------------------------------
G|--------------------------------------------------
D|--3-----------------3-----------------3-----5-----
A|--1-----------------1-----------------1-----3-----
D|--1-----------------1-----------------1-----3-----

(Chorus x1)

Outro x1
E|--------------------------------------------------------------------------------------------------
B|--------------------------------------------------------------------------------------------------
G|--------------------------------------------------------------------------------------------------
D|--------------------------------------------------------------------------------------------------
A|-----5--3--0--------------------------------3--5-----5--3--0--------------3--------5--------3-----
D|--0-----------5--6--0--6--5--3--0--3--5--6--------0-----------5--6--5--0--3--------5--------3-----

E|--------------------------------------------------------------------------------------------------
B|--------------------------------------------------------------------------------------------------
G|--------------------------------------------------------------------------------------------------
D|--------------------------------------------------------------------------------------------------
A|-----5--3--0--------------------------------3--5-----5--3--0--------------------------------------
D|--0-----------5--6--0--6--5--3--0--3--5--6--------0-----------5--6--5--0--6--5--3--0--------------

E|--------------------------------------------------------------------------------------------------
B|--------------------------------------------------------------------------------------------------
G|--------------------------------------------------------------------------------------------------
D|--------------------------------------------------------------------------------------------------
A|-----5--3--0--------------------------------3--5-----5--3--0--------------3--------5--------3-----
D|--0-----------5--6--0--6--5--3--0--3--5--6--------0-----------5--6--5--0--3--------5--------3-----

E|--------------------------------------------------------------------------------------------------
B|--------------------------------------------------------------------------------------------------
G|--------------------------------------------------------------------------------------------------
D|--------------------------------------------------------------------------------------------------
A|-----5--3--0--------------------------------3--5-----5--------3--------6-----6--5--3--------------
D|--0-----------5--6--0--6--5--3--0--3--5--6--------0-----0--0-----0--0-----0-----------6--5--3--0--

E|--------------------------------------------------------------------------------------------------
B|--------------------------------------------------------------------------------------------------
G|--------------------------------------------------------------------------------------------------
D|--------------------------------------------------------------------------------------------------
A|--6--5--3--0-----------0--------------------------------------------------------------------------
D|--------------6--5--3--0--------------------------------------------------------------------------

tabs and chords, guitar tabs, music contests, music covers, songsterr, reverbnation, renditions, tabulature, bollywood chords, ultimate guitar, yousician, guitar lessons, torrins, fender, gibson, acoustic guitar, electric guitar, youtube covers, gootar, guitar tuner, A-Z tabs, 911 tabs