Guitar Tabs for The Chainsmokers - Kanye

The Chainsmokers - Kanye

CAPO in 3rd Fret

Intro

    G     Em
E|--3-----0--
B|--3-----0--
G|--0-----0--
D|--0-----2--
A|--2-----2--
E|--3-----0--
 
1st Verse

    G                              Em
    I have never wished and hoped, didn't need a telescope
E|--3------------------------------0-----------------------
B|--3------------------------------0-----------------------
G|--0------------------------------0-----------------------
D|--0------------------------------2-----------------------
A|--2------------------------------2-----------------------
E|--3------------------------------0-----------------------

    G                    C
        To see where I am going
E|--3--------------------0-----
B|--3--------------------1-----
G|--0--------------------0-----
D|--0--------------------2-----
A|--2--------------------3-----
E|--3--------------------------

    G                           Em
    I have never been the one, trying hard to hold my tongue
E|--3---------------------------0--------------------------
B|--3---------------------------0--------------------------
G|--0---------------------------0--------------------------
D|--0---------------------------2--------------------------
A|--2---------------------------2--------------------------
E|--3---------------------------0--------------------------

    G              C
      Is my stereo on
E|--3--------------0-----
B|--3--------------1-----
G|--0--------------0-----
D|--0--------------2-----
A|--2--------------3-----
E|--3--------------------

Pre-Chorus

   Bm                        Em                      G
   One day I'll stand with a crown on my head Like a God, yeah like a God
E|--2-----------------------0------------------------3--------------------
B|--3-----------------------0------------------------3--------------------
G|--4-----------------------0------------------------0--------------------
D|--4-----------------------2------------------------0--------------------
A|--2-----------------------2------------------------2--------------------
E|--------------------------0------------------------3--------------------


   Bm                    Em                         G
   With every step, no, I won't second guess what I want
E|--2--------------------0---------------------------3--
B|--3--------------------0---------------------------3--
G|--4--------------------0---------------------------0--
D|--4--------------------2---------------------------0--
A|--2--------------------2---------------------------2--
E|-----------------------0---------------------------3--

Chorus

                G        C
I wanna be like Kanye
E|---------------3-------0---
B|---------------3-------1---
G|---------------0-------0---
D|---------------0-------2---
A|---------------2-------3---
E|---------------3-----------

                       Em      D
I'll be the King of me always
E|---------------------0-------2---
B|---------------------0-------3---
G|---------------------0-------2---
D|---------------------2-------0---
A|---------------------2-----------
E|---------------------0-----------
                          G          C
Do what I want and have it my way
E|------------------------3----------0---
B|------------------------3----------1---
G|------------------------0----------0---
D|------------------------0----------2---
A|------------------------2----------3---
E|------------------------3--------------

               Em           D         
All day, like Kanye-eah, yeah, yeah
E|------------0-------------2---
B|------------0-------------3---
G|------------0-------------2---
D|------------2-------------0---
A|------------2-----------------
E|------------0-----------------
     G    C     Em       D
Uhhh, hey!  Uhh 
E|---3----0-----0--------2---
B|---3----1-----0--------3---
G|---0----0-----0--------2---
D|---0----2-----2--------0---
A|---2----3-----2------------
E|---3----------0------------
     G     C      Em        D
Like Kanye, Kanye, yeah-ah, yeah-ah
E|---3----0--------0--------2---
B|---3----1--------0--------3---
G|---0----0--------0--------2---
D|---0----2--------2--------0---
A|---2----3--------2------------
E|---3-------------0------------
     G                            C 
    I'll be the king of me
E|---3----------------------------0---
B|---3----------------------------1---
G|---0----------------------------0---
D|---0----------------------------2---
A|---2----------------------------3---
E|---3--------------------------------

2nd Verse

   G                               Em
    Came from a broken home okay, single momma let me chase
E|--3------------------------------0-----------------------
B|--3------------------------------0-----------------------
G|--0------------------------------0-----------------------
D|--0------------------------------2-----------------------
A|--2------------------------------2-----------------------
E|--3------------------------------0-----------------------

    G                    C
             What I was made for
E|--3--------------------0-----
B|--3--------------------1-----
G|--0--------------------0-----
D|--0--------------------2-----
A|--2--------------------3-----
E|--3--------------------------

    G                        Em
    We be out to Paradise, build on nickels and dimes
E|--3------------------------0--------------------------
B|--3------------------------0--------------------------
G|--0------------------------0--------------------------
D|--0------------------------2--------------------------
A|--2------------------------2--------------------------
E|--3------------------------0--------------------------

    G                 C
      I'm entitled to so much more
E|--3-----------------0-----------
B|--3-----------------1-----------
G|--0-----------------0-----------
D|--0-----------------2-----------
A|--2-----------------3-----------
E|--3-----------------------------

Pre-Chorus

   Bm                        Em                      G
   One day I'll stand with a crown on my head Like a God, yeah like a God
E|--2-----------------------0------------------------3--------------------
B|--3-----------------------0------------------------3--------------------
G|--4-----------------------0------------------------0--------------------
D|--4-----------------------2------------------------0--------------------
A|--2-----------------------2------------------------2--------------------
E|--------------------------0------------------------3--------------------


   Bm                    Em                         G
   With every step, no, I won't second guess what I want
E|--2--------------------0---------------------------3--
B|--3--------------------0---------------------------3--
G|--4--------------------0---------------------------0--
D|--4--------------------2---------------------------0--
A|--2--------------------2---------------------------2--
E|-----------------------0---------------------------3--

Chorus

                G        C
I wanna be like Kanye
E|---------------3-------0---
B|---------------3-------1---
G|---------------0-------0---
D|---------------0-------2---
A|---------------2-------3---
E|---------------3-----------

                       Em      D
I'll be the King of me always
E|---------------------0-------2---
B|---------------------0-------3---
G|---------------------0-------2---
D|---------------------2-------0---
A|---------------------2-----------
E|---------------------0-----------
                          G          C
Do what I want and have it my way
E|------------------------3----------0---
B|------------------------3----------1---
G|------------------------0----------0---
D|------------------------0----------2---
A|------------------------2----------3---
E|------------------------3--------------

               Em           D         
All day, like Kanye-eah, yeah, yeah
E|------------0-------------2---
B|------------0-------------3---
G|------------0-------------2---
D|------------2-------------0---
A|------------2-----------------
E|------------0-----------------
     G    C     Em       D
Uhhh, hey!  Uhh 
E|---3----0-----0--------2---
B|---3----1-----0--------3---
G|---0----0-----0--------2---
D|---0----2-----2--------0---
A|---2----3-----2------------
E|---3----------0------------
     G     C      Em        D
Like Kanye, Kanye, yeah-ah, yeah-ah
E|---3----0--------0--------2---
B|---3----1--------0--------3---
G|---0----0--------0--------2---
D|---0----2--------2--------0---
A|---2----3--------2------------
E|---3-------------0------------
                          G       C        Em    D
    I'll be the king of me
E|------------------------3-------0--------0-----2---
B|------------------------3-------1--------0-----3---
G|------------------------0-------0--------0-----2---
D|------------------------0-------2--------2-----0---
A|------------------------2-------3--------2---------
E|------------------------3----------------0---------

                          G       C        Em    D
    I'll be the king of me
E|------------------------3-------0--------0-----2---
B|------------------------3-------1--------0-----3---
G|------------------------0-------0--------0-----2---
D|------------------------0-------2--------2-----0---
A|------------------------2-------3--------2---------
E|------------------------3----------------0---------

                          G       C        Em    D
    I'll be the king of me  ,  me  , me ,  me
E|------------------------3-------0--------0-----2---
B|------------------------3-------1--------0-----3---
G|------------------------0-------0--------0-----2---
D|------------------------0-------2--------2-----0---
A|------------------------2-------3--------2---------
E|------------------------3----------------0---------

                          G       C        Em    D
    I'll be the king of me, me   , me ,  me , me
E|------------------------3-------0--------0-----2---
B|------------------------3-------1--------0-----3---
G|------------------------0-------0--------0-----2---
D|------------------------0-------2--------2-----0---
A|------------------------2-------3--------2---------
E|------------------------3----------------0---------

        G       C       Em     D
   Like Kanye, Kanye, yeah-ah, yeah-ah
E|------3-------0--------0-----2------
B|------3-------1--------0-----3------
G|------0-------0--------0-----2------
D|------0-------2--------2-----0------
A|------2-------3--------2------------ 
E|------3----------------0------------

3rd Verse

    G                              Em
    I have never wished and hoped, didn't need a telescope
E|--3------------------------------0-----------------------
B|--3------------------------------0-----------------------
G|--0------------------------------0-----------------------
D|--0------------------------------2-----------------------
A|--2------------------------------2-----------------------
E|--3------------------------------0-----------------------

    G                    C
        To see where I am going
E|--3--------------------0-----
B|--3--------------------1-----
G|--0--------------------0-----
D|--0--------------------2-----
A|--2--------------------3-----
E|--3--------------------------

    G                           Em
    I have never been the one, trying hard to hold my tongue
E|--3---------------------------0--------------------------
B|--3---------------------------0--------------------------
G|--0---------------------------0--------------------------
D|--0---------------------------2--------------------------
A|--2---------------------------2--------------------------
E|--3---------------------------0--------------------------

    G              C
      Is my stereo on
E|--3--------------0-----
B|--3--------------1-----
G|--0--------------0-----
D|--0--------------2-----
A|--2--------------3-----
E|--3--------------------


Outro

                          G       C        Em    D
    I'll be the king of me, me   , me ,  me , me
E|------------------------3-------0--------0-----2---
B|------------------------3-------1--------0-----3---
G|------------------------0-------0--------0-----2---
D|------------------------0-------2--------2-----0---
A|------------------------2-------3--------2---------
E|------------------------3----------------0---------

                          G       C        Em    D
    I'll be the king of me, me   , me ,  me , me
E|------------------------3-------0--------0-----2---
B|------------------------3-------1--------0-----3---
G|------------------------0-------0--------0-----2---
D|------------------------0-------2--------2-----0---
A|------------------------2-------3--------2---------
E|------------------------3----------------0---------

        G       C       Em     D
   Like Kanye, Kanye, yeah-ah, yeah-ah
E|------3-------0--------0-----2------
B|------3-------1--------0-----3------
G|------0-------0--------0-----2------
D|------0-------2--------2-----0------
A|------2-------3--------2------------ 
E|------3----------------0------------
tabs and chords, guitar tabs, music transcription, music technology, deep learning, music information retrieval, transcribe into tabs & chords, chordify, music renditions, songsterr, reverbnation, tabulature, bollywood chords, ultimate guitar, yousician, guitar lessons, acoustic guitar, electric guitar, guitar tuner, 911 tabs