Bass Tabs for The Blue Brothers - Sweet Home Chigago

BASS TAB
The BLue Brothers - Sweet Home Chigago

Intro

G|-----------
D|-----------
A|-----------
E|--5--6--7--

G|--------------------------------------------------------------------
D|--------------------------------------------------------------------
A|--------------2--2--------------4--4--7--7--4--4--------6--6--9--9--
E|--0--0--4--4--------4--4--5--5--------------------7--7--------------

G|--------------------------------------------------------------
D|--------------------------------------------------------------
A|--------4--4--7--7--4--4--------------2--2-----------0--1--2--
E|--5--5--------------------0--0--4--4--------4--4--------------
tabs and chords, guitar tabs, music transcription, music technology, deep learning, music information retrieval, transcribe into tabs & chords, chordify, music renditions, songsterr, reverbnation, tabulature, bollywood chords, ultimate guitar, yousician, guitar lessons, acoustic guitar, electric guitar, guitar tuner, 911 tabs