Bass Tabs for The Beatles - While My Guitar Gently Weeps

BASS TAB
The Beatles - While My Guitar Gently Weeps

Intro & 1st Verse
G|--------------------------------------------
D|--7--5--4--3--7--5--------------------------
A|--------------------5--7--7--7--7--7--7--7--
E|--------------------------------------------

2nd Verse
G|-----------------9--9--9-----7--7--7-----------------------------
D|--7--5--4--3-----7--7--7-----5--5--5-----------------------------
A|--------------------------------------3--3--3--3--2--3--5--7--7--
E|-----------------------------------------------------------------

Chorus
G|--------------------4-----------------------4-----------------------------------
D|---------------2/6---------------------2/6--------------------------4--6--7--7--
A|--------4-----------------------4-----------------2--0--2--2-----7--------------
E|--5-----------------------2-----------------------------------------------------

tabs and chords, guitar tabs, music transcription, music technology, deep learning, music information retrieval, transcribe into tabs & chords, chordify, music renditions, songsterr, reverbnation, tabulature, bollywood chords, ultimate guitar, yousician, guitar lessons, acoustic guitar, electric guitar, guitar tuner, 911 tabs