Bass Tabs for The Beatles - Ticket To Ride

The Beatles - Ticket To Ride

Verse
G|-----------------------------------------------------------
D|--7-----7--7-----7-----7--7-----7-----7--7-----7-----7--7--
A|-----------------------------------------------------------
E|-----------------------------------------------------------

G|-----------------------------------------------------------
D|--7-----7--7-----7-----7--7-----9-----9--9-----------------
A|-----------------------------------------------7-----7--7--
E|-----------------------------------------------------------

Chorus
G|-----------------------------------------------------------------------------------
D|-----------------------------------------------------------------------------------
A|--9-----9--9--------------------9-----9--9--7--10----9-----9--9-----7-----7--7-----
E|-----------------10----10-10-------------------------------------------------------

Bridge
G|--------------------------------------------------------------------------------------
D|--------7--------7-----------7-----------------------7--------7-----------7-----------
A|--5--5-----4--5-----4--5--5-----5--7-----7--5-----5-----4--5--------4--5--------5--7--
E|--------------------------------------------------------------------------------------

My Baby Don't Care
G|--------------------------------------------------
D|--7-----7-----7-----7-----7-----7-----7-----7-----
A|-----7-----7-----7-----7-----7-----7-----7-----7--
E|--------------------------------------------------
tabs and chords, guitar tabs, music transcription, music technology, deep learning, music information retrieval, transcribe into tabs & chords, chordify, music renditions, songsterr, reverbnation, tabulature, bollywood chords, ultimate guitar, yousician, guitar lessons, acoustic guitar, electric guitar, guitar tuner, 911 tabs