Bass Tabs for The Beatles - Sweet Little Sixteen

The Beatles - Sweet Little Sixteen

G|--------------------------------------------------------------------------------------------------
D|-----------------------------6--9--6-----6--9--6-----------------------------6--9--6-----6--9--6--
A|-----6--9--6-----6--9--6--7-----------7--------------6--9--6-----6--9--6--7-----------7-----------
E|--7-----------7-----------------------------------7-----------7-----------------------------------

G|--------------------------------------------------------------------------------------------------
D|-----------------------------6--9--6-----6--9--6-----------------------------6--9--6-----6--9--6--
A|-----4--7--4-----4--7--4--7-----------7--------------6--9--6-----6--9--6--7-----------7-----------
E|--5-----------5-----------------------------------7-----------7-----------------------------------
tabs and chords, guitar tabs, music transcription, music technology, deep learning, music information retrieval, transcribe into tabs & chords, chordify, music renditions, songsterr, reverbnation, tabulature, bollywood chords, ultimate guitar, yousician, guitar lessons, acoustic guitar, electric guitar, guitar tuner, 911 tabs