Bass Tabs for The Beatles - Soldier Of Love

The Beatles - Soldier of Love

Intro
G|--------------------------------------------------------------------------------
D|--------------------------------------------------------------------------------
A|-----5--7--8-----8--7--5--------5--7--8-----8--7--5--------5--7--8-----8--7--8--
E|--8-----------8-----------5--8-----------8-----------5--8-----------8-----------

Verse
G|--------------------------------------------------------------------------------------------------
D|--------------------------------------------------------------------------------------------------
A|--5--5--------5--5--------8--8--------8--8--------5--5--------5--5--------8--8--------8--8--------
E|--------5--5--------5--5--------8--8--------8--8--------5--5--------5--5--------8--8--------8--8--

G|--------------------------------------------------
D|--------------5--5-----5--------------------------
A|--5--5-----5--------5-----8--8--------8--8--------
E|--------5-----------------------8--8--------8--8--

Bridge
G|--------------------------------------------------
D|--------------------------------------------------
A|--8--8--------------4--7--------------8--8--------
E|--------8--8--5--5--------6--6--8--8--------8--8--

G|-----------------------------------------
D|-----------------------------------------
A|--8--8-----8--------4--7--------------8--
E|--------8-----5--5--------6--6--8--8-----



tabs and chords, guitar tabs, music transcription, music technology, deep learning, music information retrieval, transcribe into tabs & chords, chordify, music renditions, songsterr, reverbnation, tabulature, bollywood chords, ultimate guitar, yousician, guitar lessons, acoustic guitar, electric guitar, guitar tuner, 911 tabs