Bass Tabs for The Beatles - She Loves You

The Beatles - She Loves You

Intro & Chorus
G|-----------------------------------------------------------------------
D|--------------------------7--7-----5--7--7-----7--------5--5--------5--
A|--7--7--------7--7-----7--------7-----------7-----3--3--------3--3-----
E|--------7--7--------7--------------------------------------------------

G|--------------------------
D|--5--5--------5--5-----4--
A|--------5--5--------5-----
E|--------------------------

Verse
G|--------------------------------------------
D|--5--5-----5--------------------------------  2x
A|--------5-----7--7--7--7-----------5--5--5--
E|--------------------------7--7--7-----------

G|-----------------------------------------------------------------------
D|--5--------5-----------------------------5--------5--------7--------7--
A|--------5--------5--7-----5--7-----5--3-----3--3-----3--5-----5--5-----
E|-----7--------7--------7--------7--------------------------------------

With a love like that
G|-----------------
D|-----------------
A|--3--3--3-----5--
E|-----------------

Last Note -> G
tabs and chords, guitar tabs, music transcription, music technology, deep learning, music information retrieval, transcribe into tabs & chords, chordify, music renditions, songsterr, reverbnation, tabulature, bollywood chords, ultimate guitar, yousician, guitar lessons, acoustic guitar, electric guitar, guitar tuner, 911 tabs