Guitar Tabs for The Beatles - I've Just Seen A Face

The Beatles - I've Just Seen A Face

CAPO at 2nd Fret

Intro

E|-----------0-----0-----0-----3-----3-----3-----7-----7-----7-----12----12----12-------
B|--------------------------------------------------------------------------------------
G|--------0-----0-----0-----4-----4-----4-----9-----9-----9-----12----12----12----------
D|--------------------------------------------------------------------------------2--0--
A|--------------------------------------------------------------------------------------
E|--3--2--------------------------------------------------------------------------------

E|-----8-----8-----8-----10----10----10----12----12----12----12----12----12----12-------
B|--------------------------------------------------------------------------------------
G|--9-----9-----9-----10----10----10----12----12----12----12----12----12----12----------
D|--------------------------------------------------------------------------------------
A|--------------------------------------------------------------------------------2--3--
E|--------------------------------------------------------------------------------------

E|-----10----10----10----8-----8-----8-----7-----7-----
B|-----------------------------------------------------
G|--11----11----11----9-----9-----9-----7-----7-----7--
D|-----------------------------------------------------
A|-----------------------------------------------------
E|-----------------------------------------------------

1st Verse

  (G)
I've just seen a face I can't forget

                        (G/F#)     
The time or place where we just met

(Em)
She's just the girl for me and I want

                  (Em7)       (C)
All the world to see we've met

(C) (C/B) (D)        (G)
Uh uh uh uh uh uh

2nd Verse

(G)
Had it been another day

                              (G/F#)    
I might have looked the other way and 

(Em)
I'd have never been aware

                            (Em7)   (C)
But as it is I'll dream of her tonight

(C) (C/B)  (D)       (G)
Da da da da da da

Chorus

 (D)               (C)                     (G)      (C)        (G)
Falling yes I am falling and she keeps calling  me back again

3rd Verse

(G)                                     (G/F#)
I have never known the likes of this I've been alone and I have

(Em)
Missed things and kept out of sight

                             (Em7)        (C)
For other girls were never quite like this

(C) (C/B) (D)        (G)
Da da da da da da

 (D)                (C)                     (G)     (C)           (G)
Falling yes I am falling and she keeps calling  me back again

Guitar Solo

(G)  (G/F#)  (Em)  (Em7)  

(C) (C/B)  (D) (G)

Chorus

 (D)                (C)                    (G)      (C)         (G)
Falling yes I am falling and she keeps calling  me back again

4th Verse

(G)
I've just seen a face I can't forget

                        (G/F#)     
The time or place where we just met

(Em)
She's just the girl for me and I want

                  (Em7)       (C)
all the world to see we've met

(C) (C/B) (D)        (G)
Uh uh uh na na na

Chorus

 (D)                (C)                     (G)      (C)          (G)
Falling yes I am falling and she keeps calling  me back again

 (D)                (C)                    (G)      (C)          (G)
Falling yes I am falling and she keeps calling  me back again

Ending

 (D)                (C)                    (G)      (C)          (C) (C/B) (D) (G)
Falling yes I am falling and she keeps calling  me back again
----------------------------------------------------------------------------------------------------
Chords

    G    G/F#   Em   Em7 
E|--3-----3-----0-----0--
B|--3-----3-----0-----3--
G|--0-----0-----0-----0--
D|--0-----0-----2-----2--
A|--2-----2-----2-----2--
E|--3-----2-----0-----0--

    C    C/B    D
E|--0-----0-----2--
B|--1-----1-----3--
G|--0-----2-----2--
D|--2-----0-----0--
A|--3-----2--------
E|-----------------
tabs and chords, guitar tabs, music transcription, music technology, deep learning, music information retrieval, transcribe into tabs & chords, chordify, music renditions, songsterr, reverbnation, tabulature, bollywood chords, ultimate guitar, yousician, guitar lessons, acoustic guitar, electric guitar, guitar tuner, 911 tabs