Bass Tabs for The Beatles - I Wanna Hold Your Hand

The Beatles - I Wanna Hold Your Hand

Intro
G|-----------------------
D|-----------------------  2x
A|-----7--5--5--5--5--5--
E|--8--------------------

G|--------------------------------------------------
D|--------------------------------------------------
A|-----7--5--5--5--5--5--5--5--5--5--5--5--5--5--5--
E|--8-----------------------------------------------

Verse
G|-----------------------------------------------
D|--5--5-----5-----------------------------------  2x
A|--------5-----5--5--5--4--5--6--7--7--7--------
E|-----------------------------------------7--7--

Chorus
G|--------------------------------
D|--------5--2--------------5--5--
A|--3--5-----------3--5-----------
E|-----------------------3--------

Bridge
G|-----------------------------------------------------------
D|-----------------5-----5--5--------------------7-----7--7--
A|--5-----5--5--------------------3-----3--3-----------------
E|-----------------------------------------------------------

G|-----------------------------------------------
D|-----------------5-----5--5--------------------
A|--5-----5--5-----------------------------------
E|--------------------------------8-----8--8-----

G|--------------------------------------------------------------------
D|--------------------------------------------------------------------
A|-----7--5--5--5--------7--5--5--5--------7--5--5--5--5--5--5--5--5--
E|--8-----------------8-----------------8-----------------------------

Chorus/Final
G|--------------------------------------------------------
D|--------------5--5--2--2--------------9--9--9--9--9--9--
A|--3--3--5--5--------------3--3--5--5--------------------
E|--------------------------------------------------------

G|-----------------------------------
D|--------------------------------5--
A|--3--3--5--5-----7--5-----7--5-----
E|--------------8--------8-----------
tabs and chords, guitar tabs, music transcription, music technology, deep learning, music information retrieval, transcribe into tabs & chords, chordify, music renditions, songsterr, reverbnation, tabulature, bollywood chords, ultimate guitar, yousician, guitar lessons, acoustic guitar, electric guitar, guitar tuner, 911 tabs