Bass Tabs for The Beatles - Eight Days A Week

The Beatles - Eight Days a Week

G|--7--7--7--7--7--7--7--7--7--7--7--7--7--7--7--7--7--7--7--7--7--
D|-----------------------------------------------------------------
A|-----------------------------------------------------------------
E|-----------------------------------------------------------------

G|--7--4-----------------------4--7--4--7--4--------
D|--------7--4-----6--9--6--5-----------------7--4--
A|--------------7-----------------------------------
E|--------------------------------------------------

G|--7--4-----------------------4--7--4--7--4--------
D|--------7--4-----6--9--6--5-----------------7--4--
A|--------------7-----------------------------------
E|--------------------------------------------------

G|--4-----4--4--4--4-----------------------4-----4--4--4--4--------------------
D|--------------------5-----5--5--5--5-----------------------------------------
A|-----------------------------------------------------------7-----7--7--7--7--
E|-----------------------------------------------------------------------------

G|--7--4-----------------------4--7--4--7--4--------
D|--------7--4-----6--9--6--5-----------------7--4--
A|--------------7-----------------------------------
E|--------------------------------------------------

Bridge
G|-----------------------------------
D|--7-----7--------7-----7-----7--9--
A|-----------7--7-----------7--------
E|-----------------------------------

G|--------------------------------------------------
D|--------------------------5--5-----5--7--7-----7--
A|--7--7--------7--7-----7--------5-----------7-----
E|--------7--7--------7-----------------------------

Ending
G|--7--7--7--7--7--7--7--7--7--7--7--7--7--7--7--7--7--7--7-----7--
D|-----------------------------------------------------------------
A|-----------------------------------------------------------------
E|-----------------------------------------------------------------
tabs and chords, guitar tabs, music transcription, music technology, deep learning, music information retrieval, transcribe into tabs & chords, chordify, music renditions, songsterr, reverbnation, tabulature, bollywood chords, ultimate guitar, yousician, guitar lessons, acoustic guitar, electric guitar, guitar tuner, 911 tabs