Guitar Tabs for The Beatles - Drive My Car

The Beatles - Drive My Car

Intro
E|-----------------------------------------------
B|---------------------6b---------7--5-----5--7--
G|--------5---7p5--------------5--7--5-----5--7--
D|---5/7-----------7--------------------7--------
A|-----------------------------------------------
E|-----------------------------------------------

(D7)

1st Verse

(D7)                      (G7)
  Asked a girl what she wanted to be
  
(D7)              (G7)
  She said baby, can't you see
  
(D7)                     (G7)
  I wanna be famous, a star on the screen
  
   (A7)
But you can do something in between

Chorus

(Bm)                 (G7)
Baby you can drive my car

(Bm)               (G7)
Yes I'm gonna be a star

(Bm)                  (E)
Baby you can drive my car

    (A)       (D)      (G)  (A)
And maybe I'll love you

2nd Verse

(D7)                        (G7)
  I told that girl that my prospects were good
  
(D7)                        (G7)
  And she said baby, it's understood
  
(D7)                       (G7)
  Working for peanuts is all very fine
  
   (A7)
But I can show you a better time

Chorus

(Bm)                 (G7)
Baby you can drive my car

(Bm)               (G7)
Yes I'm gonna be a star

(Bm)                  (E)
Baby you can drive my car

    (A)       (D)      (G)  (A)
And maybe I'll love you

(A)
 Beep beep beep beep yeah

Guitar Solo

(D7)  (G7) 3x (A7)

Chorus

(Bm)                 (G7)
Baby you can drive my car

(Bm)               (G7)
Yes I'm gonna be a star

(Bm)                  (E)
Baby you can drive my car

    (A)       (D)      (G)  (A)
And maybe I'll love you

3rd Verse

(D7)                         (G7)
  I told that girl I could start right away
  
(D7)                               (G7)
  And she said listen babe I got something to say
  
(D7)                         (G7)
  I've got no car and it's breaking my heart
  
    (A7)
But I've found a driver and that's a start

Chorus

(Bm)                 (G7)
Baby you can drive my car

(Bm)               (G7)
Yes I'm gonna be a star

(Bm)                  (E)
Baby you can drive my car

    (A)       (D)      (G)  (A)
And maybe I'll love you

Outro

(A)                  (D)    (G)
 Beep beep beep beep yeah           4x
----------------------------------------------------------------------------------------------------
Chords

    D7    G7    A7    Bm 
E|--5-----3-----0-----2--
B|--7-----3-----2-----3--
G|--5-----4-----0-----4--
D|--7-----3-----2-----4--
A|--5-----5-----0-----2--
E|--------3--------------

    E     A     D     G
E|--0-----0-----2-----3--
B|--0-----2-----3-----3--
G|--1-----2-----2-----0--
D|--2-----2-----0-----0--
A|--2-----0-----------2--
E|--0-----------------3--
tabs and chords, guitar tabs, music transcription, music technology, deep learning, music information retrieval, transcribe into tabs & chords, chordify, music renditions, songsterr, reverbnation, tabulature, bollywood chords, ultimate guitar, yousician, guitar lessons, acoustic guitar, electric guitar, guitar tuner, 911 tabs