Bass Tabs for The Beatles - Come Together

The Beatles - Come Together

Intro
G|--------------10-------
D|-----------------12\8--   4x
A|--5--5--10h12----------
E|-----------------------

Verse
G|--------------10-------
D|-----------------12\8--   3x
A|--5--5--10h12----------
E|-----------------------

G|--------------------------------------------------
D|--------------10----------------------10----------
A|--------10h12----12\8-----------10h12----12\8-----
E|--5--5--------------------5--5-----------------3~~

Chorus
G|-----------------------------------------
D|-----------------------------------------
A|-----------------------------------------
E|--7--7--7--7--7--7--5--5--3--3--3--3--5--

Guitar Solo
G|-----------------------------
D|-----------------------------   4x
A|--5--5--5--5-----5--5--5--5--
E|-----------------------------

G|-----------------------------
D|-----------------------------   4x
A|-----------------------------
E|--5--5--5--5-----5--5--5--5--

Final
G|--------------------------
D|--------------------------   ?
A|--5--5--5--5--5--5--5--5--
E|--------------------------

Verse Variation (usually after chorus)
G|--------------10-10h12-10h12-10\7--/10-10h12\8--
D|-----------------------------------/------------
A|--5--5--10h12----------------------/------------
E|-----------------------------------/------------









tabs and chords, guitar tabs, music contests, music covers, songsterr, reverbnation, renditions, tabulature, bollywood chords, ultimate guitar, yousician, guitar lessons, torrins, fender, gibson, acoustic guitar, electric guitar, youtube covers, gootar, guitar tuner, A-Z tabs, 911 tabs