Bass Tabs for The Beatles - Bad Boy

The Beatles - Bad Boy

Intro
G|--------------------------
D|--------------------------  2x
A|--3-----3-----3--3-----3--
E|--------------------------


G|--------------------------
D|--------1--2--------------  8x
A|--3--3-----------------2--
E|--------------3--3--3-----


G|--------1--2--------------
D|--3--3-----------------2-- 8x
A|--------------3--3--3-----
E|--------------------------

G|--------------------------
D|--------1--2--------------  4x
A|--3--3-----------------2--
E|--------------3--3--3-----

G|-----------------------------------------
D|-----------------------------------------
A|--------------------------------------3--
E|--3--3--3--3--3--3--1--1--1--1--1--1-----


Last Note -> C
tabs and chords, guitar tabs, music transcription, music technology, deep learning, music information retrieval, transcribe into tabs & chords, chordify, music renditions, songsterr, reverbnation, tabulature, bollywood chords, ultimate guitar, yousician, guitar lessons, acoustic guitar, electric guitar, guitar tuner, 911 tabs