Guitar Tabs for The Beatles - Anna (go To Him)

The Beatles - Anna (Go To Him)

Verse Riff

E|-----2--------2-----------------------------------2--------------------------------
B|-----3-----------3-----------------------------------3-----------------------------
G|-----2-----2--------2--3--4--3--4--3--4--3--2--2--------2--3--4--3--4--3--4--3--2--
D|-----------------------------------------------------------------------------------
A|-----------------------------------------------------------------------------------
E|-----------------------------------------------------------------------------------

1st Verse

(D)   (Bm)                              
Anna   

(D)       (Bm)
You come and ask me girl   

(D)        (Bm)
To set you free girl

                     (D)         (Bm)             
You say he loves you more than me   

         (Em)       (A)
So I will set you free

         (D)    (Bm)              
Go with him (Anna)  

         (D)   (Bm) 
Go with him

2nd Verse

(D)   (Bm)                               
Anna  

                (D)      (Bm) 
Girl before you go now 

              (D)        (Bm)
I want you to know now

             (D)        (Bm)             
That I still love you so   

          (Em)         (A)
But if he loves you more

        (D)
Go with him

Bridge

(G)
All of my life I've been searchin' for a girl

       (D)
To love me like I love you

    (G)                                   (Gm)
Oh, now... But every girl I've ever had breaks my heart and leave me sad

 (E7)                                    (A)
What am I   what am I supposed to do oh...

3rd Verse

(D)   (Bm)              
Anna   

               (D)         (Bm)
Just one more thing girl

                   (D)       (Bm)                
You give back your ring to me   

           (Em)       (A)
And I will set you free

        (D)
Go with him


(G)
All of my life I've been searchin' for a girl

       (D)
To love me like I love you

                          (G)                              
But let me tell you now...But every girl I've ever had    

(Gm)
Breaks my heart and leave me sad

 (E7)                                    (A)
What am I   what am I   supposed to do 

4th Verse

(D)   (Bm)               
Anna   

                (D)         (Bm)
Just one more thing girl

                   (D)       (Bm)               
You give back your ring to me    

           (Em)       (A)
And I will set you free

 (Bm)            
(Anna)  

        (D)    (Bm)
Go with him (Anna)

                (D)         (Bm)              
You can go with him girl (Anna)  

         (D)
Go with him
----------------------------------------------------------------------------------------------------
Chords

    D     Bm    Em    A
E|--2-----2-----0-----0--
B|--3-----3-----0-----2--
G|--2-----4-----0-----2--
D|--0-----4-----2-----2--
A|--------2-----2-----0--
E|--------------0--------

    G     Gm    E7
E|--3-----3-----0--
B|--3-----3-----3--
G|--0-----3-----1--
D|--0-----5-----2--
A|--2-----5-----2--
E|--3-----3-----0--
tabs and chords, guitar tabs, music transcription, music technology, deep learning, music information retrieval, transcribe into tabs & chords, chordify, music renditions, songsterr, reverbnation, tabulature, bollywood chords, ultimate guitar, yousician, guitar lessons, acoustic guitar, electric guitar, guitar tuner, 911 tabs