Bass Tabs for The Beatles - A Hard Day's Night

The Beatles - A Hard Day's Night

Intro
G|-----
D|-----
A|--5--
E|-----

Verse
G|--------------------------------------------------------
D|--------------------------------------------------------  2x
A|--------3--3--3--5--------------------------------------
E|--3--3--------------3--3--3--3--1--1--1--1--3--3--3--3--

G|--------------------------------------------------------------
D|--------------------------------------------------5--5--5--5--
A|--3--3--3--3--5--5--5--5--------3--3--3-----------------------
E|--------------------------3--3-----------3--3--3--------------

Tension
G|--------------------------------------------------------
D|--------------------------------------------------------
A|--2--2--2--2--2-----------------2--2--2--2--2--2--2--2--
E|-----------------0--0--0--0--0--------------------------

G|-----------------------------------------------------------
D|-----------------------------------------------------------
A|--------------------------3--3--3--3--2--3--4--5--5--5--5--
E|--3--3--3--3--0--0--0--0-----------------------------------

Final
G|--------------------------------------------------------------
D|--------------------------------------------------------------
A|-----3--3--3--5--------3--3--3--5--------------3--3--3--3--5--
E|--3--------------3--3--------------3--3--3--3-----------------

Last Note -> D
tabs and chords, guitar tabs, music transcription, music technology, deep learning, music information retrieval, transcribe into tabs & chords, chordify, music renditions, songsterr, reverbnation, tabulature, bollywood chords, ultimate guitar, yousician, guitar lessons, acoustic guitar, electric guitar, guitar tuner, 911 tabs