Guitar Tabs for The Beach Boys - Wouldn't It Be Nice

The Beach Boys - Wouldn't it Be Nice

Intro

E|--------17-------------------------17-14-------14----
B|-----14----17-14-15-17-14-------15-------15-17----15-
G|--14-------------------------16----------------------
D|-----------------------------------------------------
A|-----------------------------------------------------
E|-----------------------------------------------------

1st Part

                   (F)
Wouldn't it be nice if we were older

                 (Bb)             (Gm7)
Then we wouldn't have to wait so long

   (C7)              (F)
And wouldn't it be nice to live together

             (Bb)             (Gm7)  (C7)
In the kind of world where we belong

(Dm7/A)           (Cm7/F)
You know its gonna make it that much better

(Dm7/A)                       (Am7)      (Gm7)  (C7)
When we can say goodnight and stay together

2nd Part

                   (F)
Wouldn't it be nice if we could wake up

              (Bb)             (Gm7)
In the morning when the day is new

   (C7)              (F)
And after having spent the day together

             (Bb)             (Gm7)  (C7)
Hold each other close the whole night through

(Dm7/A)                (Cm7/F)
Happy times together we've been spending

(Dm7/A)                    (Am7)        (Gm7) (C7)
I wish that every kiss was neverending

              (F)    (F4)  (F).....
Wouldn't it be nice

Bridge

(D7+)         (G7+)
Maybe if we think and wish and hope and pray it

(F#m7)           (Bm7)
might come true

(D7+)             (G7+)
Baby then there wouldn't be a single thing we

(F#m7)       (Bm7)
couldn't do

            (F#m7)                 (Bm7)
We could be married (we could be married)

                 (F#7)                     (C7)
And then we'd be happy (And then we'd be happy

              (F)     (F4) (F)....
Wouldn't it be nice

3th Part

(Dm7/A)                         (Cm7/F)
You know it seems the more we talk about it

(Dm7/A)                     Am7      Gm7
It only makes it worse to live without it

         (Am7)          (Gm7) (C7)
But lets talk about it

              (F)  (F4) (F)
Wouldn't it be nice

Ending 

(F)
Good night my baby, sleep tight my baby

----------------------------------------------------------------------------------------
Chords

    D     D7+  Dm7/A  F
E|--2-----2-----1-----1--
B|--3-----2-----1-----1--
G|--2-----2-----2-----2--
D|--0-----0-----0-----3--
A|--------------0-----3--
E|--------------------1--

    F#   F#m   F#m7   F4   Gm7
E|--2-----2-----------1--------
B|--2-----2-----2-----1-----3--
G|--3-----2-----2-----3-----3--
D|--4-----4-----2-----3-----3--
A|--4-----4-----------3--------
E|--2-----2-----2-----1-----3--

    A    Am7    Bb    Bm
E|--0-----0-----1-----2--
B|--2-----1-----3-----3--
G|--2-----0-----3-----4--
D|--2-----2-----3-----4--
A|--0-----0-----1-----2--
E|-----------------------

   Bm7    C     C7  Cm7/F
E|--2-----0-----3-----8--
B|--3-----1-----5-----8--
G|--2-----0-----3-----8--
D|--4-----2-----5-----8--
A|--2-----3-----3-----8--
E|-----------------------
tabs and chords, guitar tabs, music transcription, music technology, deep learning, music information retrieval, transcribe into tabs & chords, chordify, music renditions, songsterr, reverbnation, tabulature, bollywood chords, ultimate guitar, yousician, guitar lessons, acoustic guitar, electric guitar, guitar tuner, 911 tabs