Guitar Tabs for The Beach Boys - God Only Knows

The Beach Boys - God Only Knows

Intro

(A) (E) (A) (E) (A) (E/G#) (F#m7) (A)


E|-----------------
B|--2-----2--4--5--
G|--2-----2--4--5--
D|-----------------
A|-----------------
E|-----------------

1st Verse

(D/A)            (Bm6)
     I may not always love you

(F#m)   (F#m7)              (F#m6/A)
  But long as there are stars above you

(E/B)            (Cdim)
     You never need to doubt it

(E/B)                 (A#m7-5)
    I'll make you so sure about it

 (A)          (E/G#)           (F#m7)        (E)
   God only knows what I'd be without you

2nd Verse

(D/A)       (Bm6)
    If you should ever leave me

   (F#m) (F#m7)              (F#m6/A)
Though life would still go on believe me
        
   (E/B)       (Cdim)
The world could show nothing to me
        
    (E/B)             (A#m7-5)
So what good would living do me
        
 (A)              (E/G#)       (F#m7)     (E)
God only knows what I'd be without you

Bridge
E|--------------------------------------------------------------------------------------
B|--------5--------------5--3-----------3--------3--------5-----------5--3-----3--------
G|--6--------------6-----------------5-----5--4-----6--------------6--------5-----5--4--
D|--------------------------------------------------------------------------------------
A|--------------------------------------------------------------------------------------
E|--------------------------------------------------------------------------------------

  (G/D) (Em6)(Bm/F#)(Bm7) (E7/D)
E|--3-----0-----2-----2-----0--
B|--3-----2-----3-----3-----3--
G|--0-----0-----4-----2-----1--
D|--0-----2-----4-----4-----0--
A|--------2-----------2--------
E|--------0-----2--------------


  (A/E) (Fdim)(A/E)(D#m7-5)
E|--0-----------0-----2--
B|--2-----0-----2-----2--
G|--2-----1-----2-----2--
D|--2-----0-----2-----1--
A|--0-----------0--------
E|--0-----1-----0--------

(D)             (A/C#)         (Bm)
 God only knows what I'd be without you

3rd Verse

(D/A)       (Bm6)
    If you should ever leave me

   (F#m) (F#m7)              (F#m6/A)
Though life would still go on believe me
        
   (E/B)             (Cdim)
The world could show nothing to me
        
    (E/B)             (A#m7-5)
So what good would living do me
        
 (A)              (E/G#)      (F#m7)     (E)
God only knows what I'd be without you

Outro

 (A)              (E/G#)         (F#m7)     (E/G#)   (Repeat x times; Fade Out)
      God only knows what I'd be without you   

---------------------------------------------------------------------
Chords

   (A)   (E) (E/G#) (F#m7)
E|--0-----0--------------
B|--2-----0-----5-----2--
G|--2-----1-----4-----2--
D|--2-----2-----2-----2--
A|--0-----2--------------
E|--------0-----4-----2--

 (D/A)  (Bm6) (F#m) 
E|--2-----2-----2--
B|--3-----3-----2--
G|--2-----1-----2--
D|--0-----------4--
A|--0-----2-----4--
E|--------------2--

 (F#m6/A)  (E/B)  (CÂș) (A#m7-5)
E|--2--------0-----2--------
B|--2--------0-----4-----2--
G|--2--------1-----2-----1--
D|--1--------2-----4-----2--
A|--0--------2-----3-----1--
E|--------------------------


  (G/D) (Em6)(Bm/F#)(Bm7) (E7/D)
E|--3-----0-----2-----2-----0--
B|--3-----2-----3-----3-----3--
G|--0-----0-----4-----2-----1--
D|--0-----2-----4-----4-----0--
A|--------2-----------2--------
E|--------0-----2--------------


  (A/E) (Fdim)(A/E)(D#m7-5)  (Bm)
E|--0-----------0-----2--------2--
B|--2-----0-----2-----2--------3--
G|--2-----1-----2-----2--------4--
D|--2-----0-----2-----1--------4--
A|--0-----------0--------------2--
E|--0-----1-----0----------------- 
tabs and chords, guitar tabs, music transcription, music technology, deep learning, music information retrieval, transcribe into tabs & chords, chordify, music renditions, songsterr, reverbnation, tabulature, bollywood chords, ultimate guitar, yousician, guitar lessons, acoustic guitar, electric guitar, guitar tuner, 911 tabs