Guitar Tabs for Test

(/) Slide Up  (\) Slide Down  (h) Hammer On  (p) Pull Off  (b) Bend (r) Release (v) Vibrato (x) Muted

Tabs & Chords
BPM : 85.0
Check Track 2 for Chord Positions 

    E        G           E        G                 E           G                             
E|-----------------------------------------3-----------------------3--3--------------------0--
B|-----0--------3--3--3-----------------------------------------------------3--0--3--0--3-----
G|-----------0--------------------2-----0-----------------------------------------------------
D|--------------------------------------------------------------------------------------------
A|-----------------------2--2-----------------------------------------------------------------
E|--3-----------------------------------------3-----3-----3-----3-----------------------------

       F#m      E        A        E           A     G        E        A        G        D        
E|--2--2--5-----0--------0--------1-----------0--------------2-----------------------------------
B|-----------------2--3-----3-----------3--------3--2--0-----------0--3--3-----3--------------0--
G|--------------------------------------------------------------------------------2--0--2--------
D|-----------------------------------------------------------------------------------------------
A|-----------------------------------------------------------------------------------------------
E|-----------------------------------------------------------------------------------------------

                E           G           E     G        
E|-----------0--0-----------3-----0-----3-----5--3--2--
B|-----0--------------3--------------------------------
G|-----------------------------------------------------
D|-----------------------------------------------------
A|-----------------------------------------------------
E|-----------------------------------------------------

Guitar Tabs for Test






    E        G           E        G                 E           G                             
E|--0--------3-----------0--------3-----------------0-----------3-----------------------------
B|--0--------3-----------0--------3-----------------0-----------3-----------------------------
G|--1--------4-----------1--------4-----------------1-----------4-----------------------------
D|--2--------5-----------2--------5-----------------2-----------5-----------------------------
A|--2--------5-----------2--------5-----------------2-----------5-----------------------------
E|--0--------3-----------0--------3-----------------0-----------3-----------------------------

       F#m      E        A        E           A     G        E        A        G        D        
E|-----2--------0--------0--------0-----------0-----3--------0--------0--------3--------2--------
B|-----2--------0--------2--------0-----------2-----3--------0--------2--------3--------3--------
G|-----2--------1--------2--------1-----------2-----4--------1--------2--------4--------2--------
D|-----4--------2--------2--------2-----------2-----5--------2--------2--------5--------0--------
A|-----4--------2--------0--------2-----------0-----5--------2--------0--------5-----------------
E|-----2--------0-----------------0-----------------3--------0-----------------3-----------------

                E           G           E     G        
E|--------------0-----------3-----------0-----3--------
B|--------------0-----------3-----------0-----3--------
G|--------------1-----------4-----------1-----4--------
D|--------------2-----------5-----------2-----5--------
A|--------------2-----------5-----------2-----5--------
E|--------------0-----------3-----------0-----3--------

tabs and chords, guitar tabs, music transcription, music technology, deep learning, music information retrieval, transcribe into tabs & chords, chordify, music renditions, songsterr, reverbnation, tabulature, bollywood chords, ultimate guitar, yousician, guitar lessons, acoustic guitar, electric guitar, guitar tuner, 911 tabs