Guitar Tabs for Test

(/) Slide Up  (\) Slide Down  (h) Hammer On  (p) Pull Off  (b) Bend (r) Release (v) Vibrato (x) Muted

Tabs & Chords
BPM : 110.0
Check Track 2 for Chord Positions 

                   E                                                                          C#m
E|-----------------------------0-----------------7-----------------------------------------------
B|-----------------------0--------------------------9-----8--9-----8-----8--9--8--9--8--9-----9--
G|--------------------------------6--6-----------------------------------------------------------
D|-----------------------------------------------------------------------------------------------
A|-----------------------------------------------------------------------------------------------
E|-----------------0--0-----------------0-----7--------------------------------------------------

       E           G#m            A                       D                 F#m   B              
E|--------------------------8-----------------------------------------------------------7--------
B|--9--8--9--9-----9--9-----------10----10-9--10----10-9--10----10-9--10----10----7-----------9--
G|-----------------------------------------------------------------------------------------------
D|-----------------------------------------------------------------------------------------------
A|-----------------------------------------------------------------------------------------------
E|-----------------------------------------------------------------------------------------------

       E  
E|--------
B|-----9--
G|--------
D|--------
A|--------
E|--------

Guitar Tabs for Test






                   E                                                                          C#m
E|-----------------0--------------------------------------------------------------------------4--
B|-----------------0--------------------------------------------------------------------------5--
G|-----------------1--------------------------------------------------------------------------6--
D|-----------------2--------------------------------------------------------------------------6--
A|-----------------2--------------------------------------------------------------------------4--
E|-----------------0-----------------------------------------------------------------------------

       E           G#m            A                       D                 F#m   B              
E|-----0-----------4--------------0-----------------------2-----------------2-----2--------------
B|-----0-----------4--------------2-----------------------3-----------------2-----4--------------
G|-----1-----------4--------------2-----------------------2-----------------2-----4--------------
D|-----2-----------6--------------2-----------------------0-----------------4-----4--------------
A|-----2-----------6--------------0-----------------------------------------4-----2--------------
E|-----0-----------4--------------------------------------------------------2--------------------

       E  
E|-----0--
B|-----0--
G|-----1--
D|-----2--
A|-----2--
E|-----0--

tabs and chords, guitar tabs, music transcription, music technology, deep learning, music information retrieval, transcribe into tabs & chords, chordify, music renditions, songsterr, reverbnation, tabulature, bollywood chords, ultimate guitar, yousician, guitar lessons, acoustic guitar, electric guitar, guitar tuner, 911 tabs