Guitar Tabs for Test

(/) Slide Up  (\) Slide Down  (h) Hammer On  (p) Pull Off  (b) Bend (r) Release (v) Vibrato

Tabs for Song : 

Song lyrics here
E|-----------------------------------------------------------------------------------------------------------------
B|-----------------------------------------------------------------------------------------------------------------
G|--10-7--------7-----------7-----------------------------10-7--------------------------------------10-7-----------
D|--------10-10----7--10-10----7--8--10-8--7--------------------10-10-8--7--8--10----7--------------------10-10----
A|--------------------------------------------10-10p8--------------------------------------10----------------------
E|-----------------------------------------------------------------------------------------------------------------



E|-----------------------------------------------------------------------------------------------------------------
B|-----------------------------------------------------------------------------------------------------------------
G|--------------------------------------------------------10-7--------------------------------------------9--10----
D|--7--8--10----7--10----7--8--10-8--7--7-----------------------10-10----10-8--8--7--------------12----10----------
A|-----------------------------------------10-10-8-----------------------------------------10-13-------------------
E|-----------------------------------------------------------------------------------------------------------------


E|-----------------------------------------------------------------------------------------------------------------
B|-----------------------------------------------------------------10----------------------------------13----------
G|--------------------------------------------------------9--10----------10----------------------12-14----14-12----
D|--------12-10----10-10\8--7-----------------12----10-10----------------------12-------------15----------------15-
A|-10--13----------------------10-------10-13----------------------------------------------15----------------------
E|-----------------------------------------------------------------------------------------------------------------

E|-----------------------------------------------------------
B|-----------------------------------------------------------
G|--12-------------------12-------------------12-------------
D|-----15-------12-15-12----12----------15-12----12-------15-
A|-----------------------------15----------------------15----
E|-----------------------------------------------------------

E|--
B|--
G|--
D|--
A|--
E|--

Song lyrics here
E|--
B|--
G|--
D|--
A|--
E|--

Now supports capo and sound effects for vibrato/pull-off/hammer/bends etc !!! Checkout help section
tabs and chords, guitar tabs, music contests, music covers, songsterr, reverbnation, renditions, tabulature, bollywood chords, ultimate guitar, yousician, guitar lessons, torrins, fender, gibson, acoustic guitar, electric guitar, youtube covers, gootar, guitar tuner, A-Z tabs, 911 tabs