Guitar Tabs for Test

(/) Slide Up  (\) Slide Down  (h) Hammer On  (p) Pull Off  (b) Bend (r) Release (v) Vibrato (x) Muted

Tabs for Song : 

Song lyrics here
E|--------0--------0-----------0--------0-----------0--------0-----------0--------0-----
B|-----0--------0-----------0--------0-----------0--------0-----------0--------0--------
G|--1--------2-----------4--------6-----------1--------2-----------4--------6-----------
D|--------------------------------------------------------------------------------------
A|--------------------------------------------------------------------------------------
E|--------------------------------------------------------------------------------------

E|--------0--------0-----------0--------0-----------0--------0-----------0--------0--0--
B|-----0--------0-----------0--------0-----------0--------0-----------0--------0-----0--
G|--2--------4-----------6--------8-----------2--------4-----------6--------8--------8--
D|--------------------------------------------------------------------------------------
A|--------------------------------------------------------------------------------------
E|--------------------------------------------------------------------------------------

E|-----------8-----------7-----------5--------3--------2--------------2--
B|--------8-----------8-----------6--------4--------3-----------3--------
G|-----7-----------7-----------5--------3--------2-----------0-----0-----
D|-----------------------------------------------------------------------
A|-----------------------------------------------------------------------
E|-----------------------------------------------------------------------

Song lyrics here
E|--
B|--
G|--
D|--
A|--
E|--

Paste any tab in acousterr's tab maker and we'll play it !!!
Now supports capo and sound effects for vibrato/pull-off/hammer/bends/mutes etc !!! Checkout help section
tabs and chords, guitar tabs, music transcription, music technology, deep learning, music information retrieval, transcribe into tabs & chords, chordify, music renditions, songsterr, reverbnation, tabulature, bollywood chords, ultimate guitar, yousician, guitar lessons, acoustic guitar, electric guitar, guitar tuner, 911 tabs