Guitar Tabs for Test 2

(/) Slide Up  (\) Slide Down  (h) Hammer On  (p) Pull Off  (b) Bend (r) Release (v) Vibrato (x) Muted

Tabs for Song : 
BPM : 200

Song lyrics here 
E|--------12----------12----------13----------13----------10----------10----------10----------10----------------------------------------------------------9--10-11-12-12-11-10-9--
B|-----13----13----13----13----13----13----13----13----11----11----11----11----11----11----10----10-11-10-9--10-11-10-10-9--10-11-10-9-----------11-10-9--------------------------
G|--14----------14----------14----------14----------12----------12----------12----------11----------------------------------------------9--10-11----------------------------------
D|--------------------------------------------------------------------------------------------------------------------------------------------------------------------------------
A|--------------------------------------------------------------------------------------------------------------------------------------------------------------------------------
E|--------------------------------------------------------------------------------------------------------------------------------------------------------------------------------

E|--------------------------------------------------------------------------------------------------------------------------------------8--10-10-10-12-12-12----------------------------11-11-12-12-13-13-
B|--19-15-17-19-15-17-19-17-15-20-15-17-20-15-17-20-17-15-------------------------------------------------------------------------7--9--------------------------10-11-------10-10-11-11-------------------
G|--------------------------------------------------------17-15----------------------------------------------------------7--9--9-----------------------------12-------11-10-------------------------------
D|--------------------------------------------------------------16-14-------------------------------------------9--7--7-----------------------------------------------------------------------------------
A|--------------------------------------------------------------------16-14-13-------------------------9--7--9--------------------------------------------------------------------------------------------
E|-----------------------------------------------------------------------------16-14-13-14-13-12-10-9-----------------------------------------------------------------------------------------------------

E|-----------------------------------------------------------------------------------------------------------------------------8--10-8--10-8-----8--8-----8--8-----10-8-----------------------------------------------------------------------------------
B|-----3--6-----3--6-----3--6-----3--6-----3--6-----3--4-----3--4-----3--4-----3--5--6--8-----8--10----8--10----8--10----8--10----------------10-------10-------10-------10-8-----------------------------------------------------------------------------
G|--9--------9--------9--------9--------9--------7--------7--------7--------7--------------10-------10-------10-------10-------------------------------------------------------10-7-----------------------------------------------------------------------
D|-----------------------------------------------------------------------------------------------------------------------------------------------------------------------------------10-8--7--------------------------------------------------------------
A|--------------------------------------------------------------------------------------------------------------------------------------------------------------------------------------------10-9--8--------------------------7--6--5--4-----------------
E|-----------------------------------------------------------------------------------------------------------------------------------------------------------------------------------------------------11-9--8--7--8--9--8--7--------------4--2--1--0--0--

E|-----------------------------------------------------------------------------------------------------------------------------------------------------------------------------------------------------12-15----------12-11-------------------------------------------------------------
B|--9--3--6--9--3--6--9--3--6--9--3--6--9--3--6--9--3--6--9--3--6--9--3--6--9--3--6--12-7--9-----7--9--12-7--9-----7--9-----7--9-----7--9--------------------------------------12-9--7--9--12----15-12-------14-13-12-------11-11-------------------------------------------------------
G|--------------------------------------------------------------------------------------------12----------------12-------12-------12-------12-9--7--9--12-9--7--9--12-9--7--9-----------------15----------------------------------11-10-9-----------------------------------------------
D|-----------------------------------------------------------------------------------------------------------------------------------------------------------------------------------------------------------------------------------------11-11-9--9--------------7--7--9--9--9--9--9--
A|-----------------------------------------------------------------------------------------------------------------------------------------------------------------------------------------------------------------------------------------------------9--9--6--6-----------------------
E|--------------------------------------------------------------------------------------------------------------------------------------------------------------------------------------------------------------------------------------------------------------------------------------

E|--15-15-15-15h12-15h12-15h12----------------------------------------------------------------------------14----------------------------------------------------------11----------------------11-------------------12-11----------------------------------------
B|-----------------------------15-------------------------------------------------------------------11-12----13-------12----------10----------14-11----------------------10----------------------------7-----------------------------7--8-----------------------
G|--------------------------------13-------------------------------------------------------11-12-13-------------14-------14-15-11----11-------------------9--12----13-------------8--12----13----------------------------10----------------9--------------------
D|-----------------------------------15-13----------------------------------------11-12-11-------------------------12-------------------------------10----------13----------10----------12----------8-----10----12----------10----7-----------------------------
A|-----------------------------------------15-14-12----------------------14-12-11-------------------------------------------------------13-14----------9-----------------------8-----------------10-------------------------------------------9--7--5--3--2--0--
E|--------------------------------------------------12-14-15-14-12-14-15-------------------------------------------------------------------------------------------------------------------------------------11----------------9--------------------------------

E|--15-15-15-15-15-15-15-12-15-15-15-15-15-15-15----15-15-15-15-15-15-15----15-15-15-15-15-15-15-14-15-15-15-15-15-15-15-12-15-15-15-15-15-15-15-15----15-15-15-15-15-15-15-15----------------------------14-15-16-15-14-12-15----------------------12-15-12-15----------------12-15-15-12-------------------------12-12----15-15-15-15-15-15-15-15-15-15-15-12-12-12-12-10-10-10-8-----------------------------------------------------------------------
B|-----------------------------------------------13----------------------14-------------------------------------------------------------------------13-------------------------14-15-16-15-14----16-15-14----------------------14-14-13----13-14-12-------------13-14----13-14-------------14-13-------13-13-14-14-------15----------------------------------------------------------8--7--9--------------------------------------------------------------
G|--------------------------------------------------------------------------------------------------------------------------------------------------------------------------------------------15----------------------------------------13----------------------------13-------------------------13-13----------------------------------------------------------------------------------------9--8--7--6--------------------------------------------------
D|--------------------------------------------------------------------------------------------------------------------------------------------------------------------------------------------------------------------------------------------------------------------------------------------------------------------------------------------------------------------------------------------------------8--6--5-----------------------------------------
A|-----------------------------------------------------------------------------------------------------------------------------------------------------------------------------------------------------------------------------------------------------------------------------------------------------------------------------------------------------------------------------------------------------------------6--7--5--3-----------------------------
E|-----------------------------------------------------------------------------------------------------------------------------------------------------------------------------------------------------------------------------------------------------------------------------------------------------------------------------------------------------------------------------------------------------------------------------4--6--3--2--2--0--0--0--0--

E|-----9-----9-----9-----9-----9-----9-----7-----7-----7-----7-----7--------12-12-------12----12----12----12----12-15-12-15-12-15-12-15-12-15-12----------------12-15-15-12----------------12-15-15-12----------------12-15-15-12----------------12-15-17-19-17-17-17-17-19-19-19-19-------------------------------------------12-13-------------12-14-15-15-15-15-
B|--9-----9-----9-----9-----9-----9-----7-----7-----7-----7-----7-----12-12-------12-12----------------12----12----------------------------------14-13----13-14-------------14-13----13-14-------------14-13----13-14-------------14-13----13-14-------------------------------------17-19-------------------------------12-13-------13----12-13-------------------
G|-----------------------------------------------------------------------------------------12----12----------------------------------------------------13-------------------------13-------------------------13-------------------------13-------------------------------------------------16-17-19-16-17-19-17-16-14-12----------------12-------------------------
D|-----------------------------------------------------------------------------------------------------------------------------------------------------------------------------------------------------------------------------------------------------------------------------------------------------------------------------------------------------------------
A|-----------------------------------------------------------------------------------------------------------------------------------------------------------------------------------------------------------------------------------------------------------------------------------------------------------------------------------------------------------------
E|-----------------------------------------------------------------------------------------------------------------------------------------------------------------------------------------------------------------------------------------------------------------------------------------------------------------------------------------------------------------

E|--17-17-17-17-17-17-------------------15-12----------------12-15-17-19-17-19-17-19-21-22-20-21-22----------20-21-22----------------------------------------------------------------20-22-19-20-18-19-18-17-18-17-15-16-15-------------------------------------------------------------------------------------------12-15-12-15-12-15-12-15----------------------------------10-12-13-15-17-19-17-19-17-------------19-18-17-16-15-14-14-13-12-12-11-------------------------------------------------------------------10-12-12-13-13-15-15-15-15-15-15-15-
B|--------------------15-15-15-15-15-15-------14-13----13-14----------------------------------------22-21-20----------22-21----------------------------------------------------20-22----------------------------------------17-15-------------------------------------------------------------------------------12-14-------------------------14-13-14-13-14-13----14-13-12-10----------------------------19-18-19-18----------------------------------12-9--10----------------------------------------------------10-12-------------------------------------
G|--------------------------------------------------13----------------------------------------------------------------------22-20----------------------------------------20-21----------------------------------------------------17-16-15----------------------------------------------------------------12-14-------------------------------------------------14----------------------------------------------------------------------------------------------12-10----------------------------------------10-11-------------------------------------------
D|--------------------------------------------------------------------------------------------------------------------------------22-21----------------------------20-21-------------------------------------------------------------------15-16-17-------------------------------------------------12-14-------------------------------------------------------------------------------------------------------------------------------------------------------------12-11----------------------------10-12-------------------------------------------------
A|--------------------------------------------------------------------------------------------------------------------------------------22-20----------------20-22----------------------------------------------------------------------------------18-17-15----------------------------------12-14-------------------------------------------------------------------------------------------------------------------------------------------------------------------------12-10----------------10-12-------------------------------------------------------
E|--------------------------------------------------------------------------------------------------------------------------------------------22-20-19-20-22-------------------------------------------------------------------------------------------------18-17-15-14-13-12-12-12-13-14-12-------------------------------------------------------------------------------------------------------------------------------------------------------------------------------------12-10-9--10-12-------------------------------------------------------------

E|--15-15-15-15-14-13-12-11-10-9--8--7--6--5--4--3--2--1--0--15-14-13-12-11-10-9--8--7--6--5--4--3--2--1--0-----------------------------------------15-17-------15-17----------13-12-14-15-18-17-18-17----------------------------------------------------------15-14-13-12-11-10-9--8--7--6--5--4--3--2--1--0--0--0--1--1--2--2--2--4--4--6--6--8--8--10-10-12-12-14-14-------16-16-18-18-------20-20-22-22-22-------------------21-21-20-19----------------------------------------------------------------------------------------------------------------------------------------
B|--------------------------------------------------------------------------------------------------------------15-14----15----14----15----14----17-------15-17----------15-14-------------------------18-16-------------------------------------------------------------------------------------------------------------------------------------------------------------16-16-------------20-20----------------22-20-------20-21-------------19-20-18-19----------------------------------------------------------------------------------------------------------------------------
G|-----------------------------------------------------------------------------------------------------------15-------14----15----14----15----14----------------------15-------------------------------------18-16----------------------------------------------------------------------------------------------------------------------------------------------------------------------------------------------------21-20-------------------------------18-20----------------------------------------------------------------------------------------------------------------------
D|-----------------------------------------------------------------------------------------------------------------------------------------------------------------------------------------------------------------17-15-13-11-10-9--8--7--6--5--4--3--2--1--0--------------------------------------------------------------------------------------------------------------------------------------------------------------------------------------------------20-18----------------------------------------------------------------------------------------------------------------
A|--------------------------------------------------------------------------------------------------------------------------------------------------------------------------------------------------------------------------------------------------------------------------------------------------------------------------------------------------------------------------------------------------------------------------------------------------------------------19-20-20-------------------------------------------------------------------------------------------------------
E|-----------------------------------------------------------------------------------------------------------------------------------------------------------------------------------------------------------------------------------------------------------------------------------------------------------------------------------------------------------------------------------------------------------------------------------------------------------------------------20-17-16-15-18-17-16-16-18-17-16-15-18-17-16-15-14-12-10-8--10-8--6--4--2--4--2--0--0--0--0--0--0--0--

E|--15-14-13-12-11-10-9--8--7--6--5--4--3--2--1--0--15-14-13-12-11-10-9--8--7--6--5--4--3--2--1--0--15-14-13-12-11-10-9--8--7--6--5--4--3--2--1--0--15-14-13-12-11-10-9--8--7--6--5--4--3--2--1--0--15-14-13-12-11-10-9--8--7--6--5--4--3--2--1--0--15-14-13-12-11-10-9--8--7--6--5--4--3--2--1--0--15-14-13-12-11-10-9--8--7--6--5--4--3--2--1--0--15-14-13-12-11-10-9--8--7--6--5--4--3--2--0--0--0--2--2--2--4--4--4--6--6--6--8--8--8--10-10-10-12-12-12-14-14-14-17-17-17-19-19-19-22-22-22-22-22-22-22-22-22-22-22-22-22-22-22-22-22-22----------------------------------------------
B|-----------------------------------------------------------------------------------------------------------------------------------------------------------------------------------------------------------------------------------------------------------------------------------------------------------------------------------------------------------------------------------------------------------------------------------------------------------------------------------------------------------------------------------------------------------------------------------------
G|--------------------------------------------------------------------------------------------------------------------------------------------------------------------------------------------------------------------------------------------------------------------------------------------------------------------------------------------------------------------------------------------------------------------------------------------------------------------------------------------------------------------------------------------22-20-19-17----------------------------------
D|--------------------------------------------------------------------------------------------------------------------------------------------------------------------------------------------------------------------------------------------------------------------------------------------------------------------------------------------------------------------------------------------------------------------------------------------------------------------------------------------------------------------------------------------------------15-13-11-8-----------------------
A|--------------------------------------------------------------------------------------------------------------------------------------------------------------------------------------------------------------------------------------------------------------------------------------------------------------------------------------------------------------------------------------------------------------------------------------------------------------------------------------------------------------------------------------------------------------------8--6--3--------------
E|-----------------------------------------------------------------------------------------------------------------------------------------------------------------------------------------------------------------------------------------------------------------------------------------------------------------------------------------------------------------------------------------------------------------------------------------------------------------------------------------------------------------------------------------------------------------------------1--0--0--0--

Song lyrics here 
---

Use manual mode to free up cursor. Paste any tab in acousterr tab maker and we'll play it !!!
tabs and chords, guitar tabs, music transcription, music technology, deep learning, music information retrieval, transcribe into tabs & chords, chordify, music renditions, songsterr, reverbnation, tabulature, bollywood chords, ultimate guitar, yousician, guitar lessons, acoustic guitar, electric guitar, guitar tuner, 911 tabs