Guitar Tabs for Test 1

(/) Slide Up  (\) Slide Down  (h) Hammer On  (p) Pull Off  (b) Bend (r) Release (v) Vibrato (x) Muted

Tabs for Song : 
BPM : 200

Songb lyrics here 
E|--------------------5--7--8---8/10--8/10-8--7--5-----------------------------------------------------------------------------
B|-----------------5--------------------------------8--7--5--------------------------------------------------------------------
G|---7/9---7\9--5---------------------------------------------7/9---7/9---7/0--1--3-----------------1--3--5--5--5--7--9--9--7--
D|-----------------------------------------------------------------------------------------------------------------------------
A|-----------------------------------------------------------------------------------------------------------------------------
E|-----------------------------------------------------------------------------------------------------------------------------

E|-----------------------------------------------------------------------------------------------------------------------------
B|-----------------------------------------------------------------------------------------------------------------------------
G|--4--4--4--3-----6--6--6--4-----7--7--7--6--9--9--9--8--11-11-11----11-11-11----13-13-13----13-13-13-------------------------
D|-----------------------------------------------------------------9-----------9-----------12----------------------------------
A|-----------------------------------------------------------------------------------------------------12-11-9--7--5--3--1--0--
E|--------------------------------------------------------------------------------------------------------------------------

E|--------------------------------------------------------0--0--2--2--3--3--5--5--7--7--9--9--11-11-13-13-------16-------------------------------------------------
B|-----------------------------------------0--2--2--4--4--------------------------------------------------15-16----17----------------------------------------------
G|-----------------------0--0--2--2--3--3-----------------------------------------------------------------------------17-16-15-------------------------------------
D|--0--0--2--2--4--4--3--------------------------------------------------------------------------------------------------------15-16-17----------------------------
A|--------------------------------------------------------------------------------------------------------------------------------------17-16-15-------------------
E|-----------------------------------------------------------------------------------------------------------------------------------------------15-16-17-15-13-11-

Song lyrics here 
E|--------15-12----------------12-15-15-12----------------12-15-17-15-------15-17-17-15----------15-17-15-13-12----------12----14-15-16-18-15-17-14-16-14-15-14-13-14-13-12-11-12-11-12-13-14-15-15-14-13----------------------------------------------
B|--------------14-13----13-14-------------14-13----13-14-------------17-16-------------16-17-16----------------14-12-11----14----------------------------------------------------------------------------15-14-12-------------------------------------
G|--------------------13-------------------------13----------------------------------------------------------------------------------------------------------------------------------------------------------------12-13-15----------------------------
D|--------------------------------------------------------------------------------------------------------------------------------------------------------------------------------------------------------------------------15-14-13-------------------
A|-----------------------------------------------------------------------------------------------------------------------------------------------------------------------------------------------------------------------------------15-14-12----------
E|--------------------------------------------------------------------------------------------------------------------------------------------------------------------------------------------------------------------------------------------15-14-12-

E|-----------15-12-------------------------------------------------------------12-15-15-15-15-15-15-15-15-15-15-12-12-12-12-12-12-12-12-10-10-10-8--8--------------------------------------------------------------------------------------
B|-----------------15-13-------------------------------------------------13-15-------------------------------------------------------------------------8-----10-8--------------------------------------------------------------------------
G|-----------------------14-13-------------------------------13----13-15----------------------------------------------------------------------------------10-------8--10-------------------------------------------------------------------
D|-----------------------------15-13-------------------13-15----15-------------------------------------------------------------------------------------------------------10-8--7-----------------------------------------------------------
A|-----------------------------------15-12-------12-15----------------------------------------------------------------------------------------------------------------------------10-9--8--------------------------------------------------
E|-----------------------------------------14-13-------------------------------------------------------------------------------------------------------------------------------------------7--8--10-8--8--7--5--6--4--3--2--3--2--0--0--0--

---
E|--------------------------------------------------------------------------------------------------------------------------------------------------------------------------------------------------------------8--9--10-9--8--7--------------------------------------------------------------------------------
B|--------------------------------------------------------------------------------------------------------------------------------------------------------------------------------------------------------9--10-------------------9--7--------------------------------------------------------------------------
G|-----------------------------------------------------------------------------------------------------------------------------------------------10-10-10-9--8--7--6--7--8--9--10-9--8--7--6-----8--9--10-------------------------------9--8--------------------------------------------------------------------
D|-----------------------------------------------------------------------------------------------------------------------------8--8--8--9--9--9-----------------------------------------------7-----------------------------------------------9--7--------------------------------7--9--------------------------
A|--------------------------------------------------------------------------------------------------------8--8--8--10-10-10----------------------------------------------------------------------------------------------------------------------6--7--9-----------------9--7--------10-8-----------------------
E|--------0--0--0--0--0--0--0--0--4--4--4--5--5--5--4--4--4--7--7--7--8--8--8--7--7--7--10-10-10-11-11-11-------------------------------------------------------------------------------------------------------------------------------------------------9--7--6--7--9--------------------8--10-8--6--4--2--0--

E|-----------------------------------------------3--3--1--1--4--4--4--6--6--6--8--8--8--10-10-10-12-12-12----------------------------------------------11-11-11-13-13-13-15-15-15-15-15-15-15-
B|--------------------------------------3--3--1--1-----------------------------------------------------------11-11-11-------------------10-10-10-13-13-13-------------------------------------
G|--------------------------3--3--1--1--------------------------------------------------------------------------------9--9--9--12-12-12-------------------------------------------------------
D|--------------0--0--2--2--------------------------------------------------------------------------------------------------------------------------------------------------------------------
A|--------2--2--------------------------------------------------------------------------------------------------------------------------------------------------------------------------------
E|--0--0--------------------------------------------------------------------------------------------------------------------------------------------------------------------------------------

E|--15-12-------------------------------------------------------------------13-15-13-15----13-15-13-15----11-13-11-13----11-13-11-13----------------------------11-12-13-14-15-15----------------------12----------12----------12----------13----------13----------13----------10----------10----------10----------10----------10----------10----------10----------10----------10----------------------------------------------------------------------------------------------------------------
B|--------17-16-15-14-17-16-15-14-17-16-15-14----17-17-16-16-15-15-14-14----------------14-------------14-------------12----------------12-13-11-------13-12-11-------------------14-13-12----------13----13----13----13----13----13----13----13----13----13----13----13----11----11----11----11----11----11----11----11----11----11----11----11----10----10----10----10----10----10-------------------------------------------------------------------------------------------------------------
G|--------------------------------------------15-------------------------15----------------------------------------------------------12----------11-13-------------------------------------12-15-14----------14----------14----------14----------14----------14----------12----------12----------12----------12----------12----------12----------11----------11----------11----------12-9--------------------------------------------------------------------------------------------------------
D|-----------------------------------------------------------------------------------------------------------------------------------------------------------------------------------------------------------------------------------------------------------------------------------------------------------------------------------------------------------------------------------------11-10----------------------------------------------3--5--3--------------------------------------------
A|-----------------------------------------------------------------------------------------------------------------------------------------------------------------------------------------------------------------------------------------------------------------------------------------------------------------------------------------------------------------------------------------------12-10----------------------------------3--5-----------3-----------------------------------------
E|-----------------------------------------------------------------------------------------------------------------------------------------------------------------------------------------------------------------------------------------------------------------------------------------------------------------------------------------------------------------------------------------------------12-11-10-9--10-9--7--5--3--5--3--------------------3--2--2--1--1--0--0--0--0--0--0--0--0--

E|-----------------------------------------------------------------------------------------------------------------------------------------------------------------------------------------------------------------------------------------------15-15-15-15-15-15-15-15-15-13-13-13-13-13-13-13-13-13-12-12-12-12-13-13-13-13-12-12-12-12-13-13-13-13----------------------------------------------------------------------------
B|-----------------------------------------------------------------------------------------------------------------------------------------------------------------------------------------------------------------------------15-15-15-17-17-17----------------------------------------------------------------------------------------------------------11----------------------------------------------------------------------
G|-----------------------------------------------------------------------------------------------------------------------------------------------------------------------------------------------------------17-17-17-15-15-15-------------------------------------------------------------------------------------------------------------------------13----11-12----------------------------------------------------------------
D|--------------------------------------------------------------------------------------------------------------------------------------------------------------------------------------17-17-17-15-15-15-17-------------------------------------------------------------------------------------------------------------------------------------------------------11-13-14-13----------------------------------------------------
A|-----------------------------------------------------------------------------------------------------------------------------------------------------------------------------15-15-15----------------------------------------------------------------------------------------------------------------------------------------------------------------------------------------13-14-13-11----------------------------------------
E|--0--0--0--0--0--0--0--0--0--3--3--3--3--3--3--3--5--5--5--5--5--5--5--7--7--7--7--7--7--7--9--9--9--9--9--9--9--11-11-11-11-11-13-13-13-13-13-15-15-15-15-15-17-17-17-17-17-------------------------------------------------------------------------------------------------------------------------------------------------------------------------------------------------------------11-9--6--4--5--4--3--2--0--0--0--0--0--

E|--------------------------------------------------------0--0--0--2--2--2--------------------------------4--4--4--6--6--6-----------------------7--7--7--9--9--9-----------9--9--9--11-11-11-13-13-13-15-12-------------------12-15----------------------------------------------------------------
B|-----------------------------------------------2--2--2--------------------4--4--4--2--2--2--4--5--5--5-----------------------7--7--7--9--9--9--------------------11-11-11----------------------------------14-13-------13-14-------15-14-13-12----------------------------------------------------
G|--------------------------------------0--0--0-----------------------------------------------------------------------------7--------------------------------------------------------------------------------------14-13-------------------------14-13-12-------------------------------------------
D|-----------------------------2--2--2--------------------------------------------------------------------------------------------------------------------------------------------------------------------------------------------------------------------13-14-15----------------------------------
A|--------------------1--1--1--------------------------------------------------------------------------------------------------------------------------------------------------------------------------------------------------------------------------------------15-14-12-12----------------------
E|--0--0--0--2--2--2-----------------------------------------------------------------------------------------------------------------------------------------------------------------------------------------------------------------------------------------------------------12-12-14-14-14-15-15-

E|--15-15-15-15-15-15-15-15-15-14-15-15-15-15-15-15-15-12-15-15-15-15-15-15-15-10-15-15-15-15-15-15-15----15-15-15-15-15-15----15-15-15-15-15-15----------------12----12-15-15-15-15-15-15-15-15-15-15-15-15-15-15----------15-15-15-15-15-15-15-15-15-15-15-15-15-15----------------------------------------------------------------------------------------------------------------------15-14-16-17-18-17-16-17-18-17-16-17-18-17-16-17-18-17-17-18-------------------------------------------------------------------12-15-------13-14-13-13-12-15-15-15-15-15-15-15-15-15-15-15-15-15-15-15-15-15-15-
B|-----------------------------------------------------------------------------------------------------15-------------------15-------------------14-14-13-13-12----12----------------------------------------------16-15-15-------------------------------------------16-16-16-16-15-15-15-14-14-14-13-13-13-16-16-16-15-15-15-14-14-14-13-13-13-------14-------14-------14-15-16-------15-------------------------------------------------------------18-17-16----------------------------------------------15-15-14-13-------14-13----------------------------------------------------------------------
G|-----------------------------------------------------------------------------------------------------------------------------------------------------------------------------------------------------------------------------------------------------------------------------------------------------------------------------------------------15-14----15-14----15-14----------16-15-------------------------------------------------------------------------16-17----------------------------------15-14----------------------------------------------------------------------------------------------
D|--------------------------------------------------------------------------------------------------------------------------------------------------------------------------------------------------------------------------------------------------------------------------------------------------------------------------------------------------------------------------------------------------------------------------------------------------------------------15-16-17----------------------------------------------------------------------------------------------------------------------------
A|-----------------------------------------------------------------------------------------------------------------------------------------------------------------------------------------------------------------------------------------------------------------------------------------------------------------------------------------------------------------------------------------------------------------------------------------------------------------------------17-15-16----------15-14----------------------------------------------------------------------------------------------------
E|--------------------------------------------------------------------------------------------------------------------------------------------------------------------------------------------------------------------------------------------------------------------------------------------------------------------------------------------------------------------------------------------------------------------------------------------------------------------------------------17-16-15----------------------------------------------------------------------------------------------------------

E|--15-15-15-15-15----------------12-15-15-12----------------12-15-15-12----------------12-15-12----------------------------------12-15-15-12----------------12-14-15-16-17-18-16-16-15-14-------------------------------------------------------
B|-----------------14-13----13-14-------------14-13----13-14-------------14-13----13-14----------14-13----13----14-13-------14-13-------------14-13----13-14-------------------------------14-13-11-10-------------------------------------------
G|-----------------------13-------------------------13-------------------------13----------------------13----14-------13-14-------------------------13-------------------------------------------------9--8--7--6--------------------------------
D|-----------------------------------------------------------------------------------------------------------------------------------------------------------------------------------------------------------------6--5--4-----------------------
A|-----------------------------------------------------------------------------------------------------------------------------------------------------------------------------------------------------------------------------3--2--1-----------
E|--------------------------------------------------------------------------------------------------------------------------------------------------------------------------------------------------------------------------3-----------0--0--0--

---

Use manual mode to free up cursor. Paste any tab in acousterr tab maker and we'll play it !!!
tabs and chords, guitar tabs, music transcription, music technology, deep learning, music information retrieval, transcribe into tabs & chords, chordify, music renditions, songsterr, reverbnation, tabulature, bollywood chords, ultimate guitar, yousician, guitar lessons, acoustic guitar, electric guitar, guitar tuner, 911 tabs