Guitar Tabs for Test

(/) Slide Up  (\) Slide Down  (h) Hammer On  (p) Pull Off  (b) Bend (r) Release (v) Vibrato

Tabs for Song : 

Song lyrics here

E|--0--------------0-----------------0-----------5-----------------0-----------------0------2---------------------------------------------------------
B|--------------------------------------------------------------------------------------------------1------------------2------------------------
G|--------------------------------------------------------------------------5--4--------------------3--------------------3--------3-------------
D|--------4--------------4--5--------------4--5--------9--10-------9-----------------------------6-----------------6-----------2-----0--------
A|-----2--------------2-----------------2-----------7-----------------7-----3--2--------------4-----------------4-----------------------4--2---
E|--0--------------0-----------------0-----------5-----------------------5-----------3-----2--------------0--2--------------2----------------

E|-0------------------0--------------------0-----------5-----------0--0--0-----7--12-------0--------0-----------0--------0--------5-----------0--------0-----------0--------0--------5--------
B|-----------------------------------------------------------------0--0--0--8--8--------------------------------------------------------------------------------------------------------------
G|-----------6--------------------7-----------------------------------------9--9--------------------------------------------------------------------------------------------------------------
D|--------4-----------------4--5-----------------4--5--------9--------------9--9-----------------4--------4--5--------4--------4--5--4--------------4--------4--5--------4--------4--5--4-----
A|-----2-----------------2--------------------2-----------7-----5--5--3--5--7--7--------------2--------2-----------2--------2-----------5--------2--------2-----------2--------2-----------5--
E|--0-----------------0--------------------0-----------5-----------------------7-----------0--------0-----------0--------0-----------------5--0--------0-----------0--------0-----------------


E|--0-----1--------0-----1--------1--0-----------0--------8--------------------5--0--------------0--0-----8-----------------------0-----------0-----------------------------------------------------
B|--------------------------------------------------------------------------------------------------------------------------------------------------2-----0-----------------------------------
G|--------------------------------1--0-----------------------------------------------------------0-----------------------------------------2--------------------2--0--------------------------
D|--------------5--------------5--------1-----------------8-----7-----3-----2--------2-----3-----------3--8-----7-----3-----2-----------4-----------------------------------6--------5---------
A|-----2-----3--------2-----3--------------2-----------------5-----5-----5-----5--0-----0-----0-----0--------5-----5-----5-----0-----2-----------0-----0-----0-----------4--------3-----3-------
E|--0-----1--------0-----1--------------------2-----1-----------------------------------------------------------------------------0-----------------------------------2--------1-----------1--

E|--0-----------------------0-----------------------0------------------------------------------------------------------------------
B|-----7-----------6-----------7-----------6-----------7-----------6--------------------------------------------------------------
G|--------------4-----7--6---------------4------7---------------4------7----------6--7--6-----------4--5--4-----------------------
D|-----------------------------------------------------------------------------4-----------4-----2-----------2--0--2-----2--------
A|--2-----5--3--2--------4--2-----5--3--2--------4--2-----5--3--2--------4--2-----------------0-----------------------3-----0--2--
E|--------------------------------------------------------------------------------------------------------------------------------

E|--0-----------------------0----
B|-----7-----------6-----------
G|--------------------7--------
D|--2-----------------------2----
A|--2-----5--3--2--------4--2---
E|--0-----------------------0-
tabs and chords, guitar tabs, music contests, music covers, songsterr, reverbnation, renditions, tabulature, bollywood chords, ultimate guitar, yousician, guitar lessons, torrins, fender, gibson, acoustic guitar, electric guitar, youtube covers, gootar, guitar tuner, A-Z tabs, 911 tabs