Guitar Tabs for Tera Ghata Tabs

Kuch soch ke bola hoga tumne
E|-----------------------------------------------------
B|-----------------------------------------------------
G|--1--1--4--2--2---1h-2p1--1-----1--------------------
D|-----------------------------4-----4--2---2/4--------
A|-----------------------------------------------------
E|-----------------------------------------------------

Ye pyaar bhi tola hoga tumne
E|-----------------------------------------------------
B|-----------------------------------------------------
G|--1--1--4--2--2---1h-2p1--1-----1--------------------
D|-----------------------------4-----4--2--2-----------
A|-----------------------------------------------------
E|-----------------------------------------------------

Ab na hai toh phir na sahi dilbar
E|-----------------------------------------------------
B|-----------------------------------------------------
G|--1--1--4--2--2---1h-2p1--1-----1--------------------
D|-----------------------------4-----4--2---2/4--------
A|-----------------------------------------------------
E|-----------------------------------------------------

Iss dil ko ye samjha liya humne
E|-----------------------------------------------
B|-----------------------------------------------
G|--1--1--4--2--2---1h-2p1--1-----1--------------
D|-----------------------------4-----4--2--2-----
A|-----------------------------------------------
E|-----------------------------------------------

Isme tera ghata
Mera kuch nahi jata
E|--------------------------------------------------------
B|--------2---4/5--4-----2-----2--2------2h-4p2-----------
G|---2/4--------------4--------------4-----------2--1-----
D|--------------------------------------------------------
A|--------------------------------------------------------
E|--------------------------------------------------------

Zyada pyaar ho jata
Toh main seh nahi pata
E|--------------------------------------------------------------------
B|--------2---4/5--4--2-----2--------2------2h-4p2-----2--------------
G|---2/4-----------------4--------4-----4-----------4--------2--1-----
D|--------------------------------------------------------------------
A|--------------------------------------------------------------------
E|--------------------------------------------------------------------

(music)
E|-----4-----5--------------------------------------
B|-----------------5--5---7/9--7---5h-7p5-----5-----
G|-----------------------------------------8--------
D|--------------------------------------------------
A|--------------------------------------------------
E|--------------------------------------------------

E|-----4-----5-----------------------------------------
B|-----------------5--5---7/9--7---5h-7p5-----5--------
G|-----------------------------------------8--------6--
D|-----------------------------------------------------
A|-----------------------------------------------------
E|-----------------------------------------------------
tabs and chords, guitar tabs, music contests, music covers, songsterr, reverbnation, renditions, tabulature, bollywood chords, ultimate guitar, yousician, guitar lessons, torrins, fender, gibson, acoustic guitar, electric guitar, youtube covers, gootar, guitar tuner, A-Z tabs, 911 tabs