Guitar Tabs for Tension And Confusion. ( Original Tab)

(/) Slide Up  (\) Slide Down  (h) Hammer On  (p) Pull Off  (b) Bend (r) Release (v) Vibrato (x) Muted

Tabs for Song : 
BPM : 200

Song lyrics here 
E|--------------------------------8-----------------------------------------------
B|-----7--------6--------13-12-------5--5--------10----7-----10-12----11-9--6-----
G|--11----7--4-----9--11-------10----------6--9-----12----6--------13----------9--
D|--------------------------------------------------------------------------------
A|--------------------------------------------------------------------------------
E|--------------------------------------------------------------------------------

Song lyrics here 
E|--------------------------------------------------------------------------------
B|--2--2--3--3--------2--2--3--4-----------6--------11----9--------3--2-----------
G|--------------4--3--------------5-----3-----9--10----8-----9--4--------2--3--4--
D|-----------------------------------4--------------------------------------------
A|--------------------------------------------------------------------------------
E|--------------------------------------------------------------------------------


E|--------------------------------------------------------------------------------
B|--------------6--7-----------------7--------------------------------------------
G|-----3--3--4-----------9--8--8--4-----4-----------------------------------------
D|--------------------4--------------------3--7--6--3-----6--9--6-----9--7--6-----
A|-----------------------------------------------------5-----------5-----------5--
E|--------------------------------------------------------------------------------

Use manual mode to free up cursor. Paste any tab in acousterr tab maker and we'll play it !!!
E|-----------------------------------------------------------------------------------
B|-----------------------9-----------------------------------------------------------
G|--------7--8-----5--8-----------------------5--4--4--8--------4--------5--6--------
D|--------------5-----------3--4--6--5--6--6--------------6--5-----6--7-----------8--
A|-----4-----------------------------------------------------------------------7-----
E|-----------------------------------------------------------------------------------

E|-----E|--------------------------------8-----------------------------------------------
B|-----7--------6--------13-12-------5--5--------10----7-----10-12----11-9--6-----
G|--11----7--4-----9--11-------10----------6--9-----12----6--------13----------9--
D|--------------------------------------------------------------------------------
A|--------------------------------------------------------------------------------
E|--------------------------------------------------------------------------------
---
B|--------|--------------------------------------------------------------------------------
B|--2--2--3--3--------2--2--3--4-----------6--------11----9--------3--2-----------
G|--------------4--3--------------5-----3-----9--10----8-----9--4--------2--3--4--
D|-----------------------------------4--------------------------------------------
A|--------------------------------------------------------------------------------
E|--------------------------------------------------------------------------------




E|--------------------------------------------------------------------------------
B|--------------------------------------------------------------------------10-11-
G|-----------------------8--4-----------------------------------------------------
D|--8--8--6--4--4--9--9--------4-----------------------------------6--9--6--------
A|--------------------------------8--6-----7--------------12-12-6-----------------
E|--------------------------------------5-----7--7--9--9--------------------------


E|--------------------------------------------------------------------------------
B|-----------------------------------------11----21-21----9-----------------------
G|--------------------------------12-13-12----10-------------12-------11----11----
D|-----------------------------11----------------------11-------12-12----11----11-
A|--------------------------------------------------------------------------------
E|-----5--5--5--5--5--6--8--10----------------------------------------------------
tabs and chords, guitar tabs, music transcription, music technology, deep learning, music information retrieval, transcribe into tabs & chords, chordify, music renditions, songsterr, reverbnation, tabulature, bollywood chords, ultimate guitar, yousician, guitar lessons, acoustic guitar, electric guitar, guitar tuner, 911 tabs