Guitar Tabs for Tennessee Waltz - Redd Stewart

(/) Slide Up  (\) Slide Down  (h) Hammer On  (p) Pull Off  (b) Bend (r) Release (v) Vibrato

Tabs for Song : 

Song lyrics here
E|--------------0-----------------0-----------0--3-----0--------------------------------------------------3--2--1-----
B|--------------1-----------------1-----1--3--------------3--1--------1--3--1-----------------------------------0-----
G|-----------0-----------------0--------------------0--3--------2--------------0-----0--2--0-----------0--------0-----
D|-----0--2--------------0--2--------------------------------3--------3--------2--------3--2--2--0-----------------0--
A|--3-----------------3-----------------------3--------3--------------------3-----3-----------3-----------------------
E|-----------------------------------------------------------------------------------------------3--------------------

E|--------------0-----------------0-----------0--3-----0--------------------------------------------------------------------
B|--------------1-----------------1------1/3--------------3--1--------1--1--------------------------------------------------
G|-----------0-----------------0--------------------0--3--------2-----------0-----------------------------------0--2--0-----
D|-----0--2--------------0--2--------------------------------3--------3-----2--------2--3-----2-----0-----------2--3-----2--
A|--3-----------------3-----------------------3--------3-----------------3--------3-----------------------3-----------3-----
E|--------------------------------------------------------------------------------------3-----------------------------------

Song lyrics here
E|-----------0--3-----0--------0--------------------------------------------------------------3--2--1-----
B|--1--3-----------------3--------3--3--1--------------1--1--1--------------------------------------0-----
G|-----------------0-----1--------------2--2--0-----------------0--------2--0--------------0--------0-----
D|--------------2-----------2--------3-----3-----2--------------2-----2-----------2--0-----------------0--
A|-----------3--------------------------------3--------------3-----3-----------3--------------------------
E|-----------------------0-----------------------------------------------------------3--------------------

E|--------------0-----------------0-----------0--3-----0-----------------------------------------------------------
B|--------------1-----------------1------1/3--------------3--1-----------1--1-----------------------------------1--
G|-----------0-----------------0--------------------0--3--------2--------------0-----------------------0--2--0--0--
D|-----0--2--------------0--2--------------------------------3--------3--------2--2-----3--2--0--------2--3-----2--
A|--3-----------------3-----------------------3--------3--------------------3--------------------3-----------3--3--
E|--------------------------------------------------------------------------------------3--------------------------

Now supports capo and sound effects for vibrato/pull-off/hammer/bends etc !!! Checkout help section
tabs and chords, guitar tabs, music transcription, music technology, deep learning, music information retrieval, transcribe into tabs & chords, chordify, music renditions, songsterr, reverbnation, tabulature, bollywood chords, ultimate guitar, yousician, guitar lessons, acoustic guitar, electric guitar, guitar tuner, 911 tabs