Guitar Tabs for Tengo Que Olvidarla

E|--3--3--3--3--3--3---3h5--3--------3-----------------3--
B|--------------------------------5-----5--5--5---3h5--5--
G|--------------------------------------------------------
D|--------------------------------------------------------
A|--------------------------------------------------------
E|--------------------------------------------------------

E|--3--3--3--8--8--7--5-----------3--------------------3--
B|-----------------------5-----5-----5-----5--5---3h5--5--
G|--------------------------------------------------------
D|--------------------------------------------------------
A|--------------------------------------------------------
E|--------------------------------------------------------

E|--8--8--8-----7--8-----7--8-----7--5--------5--5-----3--3-----1--1-----1--
B|--10-10-10----8--10----8--10----8--6-----6-----6-----5--5-----3--3-----3--
G|--------------------------------------------------------------------------
D|--------------------------------------------------------------------------
A|--------------------------------------------------------------------------
E|--------------------------------------------------------------------------

E|--7--7--7--7--7--7---10---8--10-8--10-8--10----12-13-13-
B|--8--8--8--8--8--8---12---10-12-10-12-10-12----13-15-15-
G|--------------------------------------------------------
D|--------------------------------------------------------
A|--------------------------------------------------------
E|--------------------------------------------------------

E|--7--7-----7-----5--3-----"3--3--3"
B|--8--8--8-----6-----5--5---5--5--5
G|----------------------------------
D|----------------------------------
A|----------------------------------
E|----------------------------------
tabs and chords, guitar tabs, music transcription, music technology, deep learning, music information retrieval, transcribe into tabs & chords, chordify, music renditions, songsterr, reverbnation, tabulature, bollywood chords, ultimate guitar, yousician, guitar lessons, acoustic guitar, electric guitar, guitar tuner, 911 tabs