Bass Tabs for Teenage Dirtbag (transposed To G)

Teenage Dirtbag - Bass Tabs
Arranged: Kaye Hidalgo
BPM : 96

Intro:
G|--------------------------------------------------
D|--------------------------------------------------
A|--------5--5--------3--3--------5--5--------3--3--
E|--3--3--------3--3--------3--3--------3--3--------
Verse: 
G|--------------------------------------------------------------------------
D|--------------------------------------------------------------------------
A|--------5--5--------3--3--------5--5--------3--3--------5--5--------3--3--
E|--3--3--------3--3--------3--3--------3--3--------3--3--------3--3--------
Pre-Chorus:
G|--------------------------------------------------	
D|--2--2--------------------2--2--------------------
A|--------3--3--5--5--5--5--------3--3--5--5--5-----
E|-----------------------------------------------5--
Chorus:
G|-----------------------4-----------------------------4-----------------------------4--------
D|--------------------2--------4--------------------2--------4--------------------2--------4--
A|--------3--3--5--5--------2-----------3--3--5--5--------2-----------3--3--5--5--------2-----
E|--3--3--------------------------3--3--------------------------3--3--------------------------
Chorus (continued):
G|-----------------------4--------------------
D|--------------------2--------4-----5-----7--
A|--------3--3--5--5--------2-----3-----5-----
E|--3--3--------------------------------------
Brige:
G|--------------------------------------------------4--------------------
D|-----------------------------------------------2--------4-----5-----7--
A|--------5--3-----------5--3-----------5--3-----------2-----3-----5-----
E|--3--3-----------3--3-----------3--3-----------------------------------
Bridge (continued):
G|--------------------------------------------------4--------------------
D|-----------------------------------------------2--------4-----5-----7--
A|--------5--3-----------5--3-----------5--3-----------2-----3-----5-----
E|--3--3-----------3--3-----------3--3-----------------------------------
End:
G|--------------------------------------------------------------------
D|--------------------------------------------------------------------
A|--------5--5--------3--3--------5--5-----------3--2--0--2--0--------
E|--3--3--------3--3--------3--3--------3--3-----------------------3--



tabs and chords, guitar tabs, music transcription, music technology, deep learning, music information retrieval, transcribe into tabs & chords, chordify, music renditions, songsterr, reverbnation, tabulature, bollywood chords, ultimate guitar, yousician, guitar lessons, acoustic guitar, electric guitar, guitar tuner, 911 tabs