Guitar Tabs for Tears In Heaven - Eric Clapton

(/) Slide Up  (\) Slide Down  (h) Hammer On  (p) Pull Off  (b) Bend (r) Release (v) Vibrato (x) Muted

Tabs for Song : Tears in heaven

Intro
E|-----------------------------------------------------------------------------------------
B|------------2h-3p2-----5-----5--2-----2--2-----2--3-----3--3-----3----3-----3--2-----2---
G|------------2h------2--4-----4--2-----2--2-----2--2-----2--2-----2----1-----1--2-----2---
D|-----------------------------------------------------------------------------------------
A|--------0----------------------------------------------------------------------0--0------
E|---0h2-----------------4--4-----2--2-----0--0-----2--2-----0--0-------0--0---------------
X2

E|----------------------------------------------------------------0---------------------
B|------------2h-3p2-----5-----5--2-----2--2-----2--3-----3-2-----2--0-----0-----2--3---
G|------------2h------2--4-----4--2-----2--2-----2--2-----2-2--------1-----1-----2--4---
D|--------------------------------------------------------------------------------------
A|--------0-----------------------------------------------------------------------------
E|---0h2-----------------4--4-----2--2-----0--0-----2--2----0--0-----0--0-----0--0------

First Verse (lyrics come in)
E|----------------------------------------------------------------0---------------------
B|------------2h-3p2-----5-----5--2-----2--2-----2--3-----3-2-----2--0-----0-----2--3---
G|------------2h------2--4-----4--2-----2--2-----2--2-----2-2--------1-----1-----2--4---
D|--------------------------------------------------------------------------------------
A|--------0-----------------------------------------------------------------------------
E|---0h2-----------------4--4-----2--2-----0--0-----2--2----0--0-----0--0-----0--0------

E|--------------------------------------------------------------------------
B|--2-----2-----2-----2-----2-----2-----2-----2-----2-----3-----3-----0--2--
G|--2-----2-----2-----1-----1-----1-----0-----0-----0-----2-----2-----------
D|--------------------------------------------------------------------------
A|--------------------------------------------------------------------------
E|--2--2-----2-----2--1--1-----1-----1--0--0-----0-----0--2--2-----2--------

E|--------------------------------
B|--3-----3-----3-----3-----3--3--
G|--2-----2-----2-----2-----2--2--
D|--------------------------------
A|--2--2-----2-----2--------------
E|--------------------0--0--0--0--

Second Verse
E|-----------------------------------------------------------------------------------------
B|------------2h-3p2-----5-----5--2-----2--2-----2--3-----3--3-----3----3-----3--2-----2---
G|------------2h------2--4-----4--2-----2--2-----2--2-----2--2-----2----1-----1--2-----2---
D|-----------------------------------------------------------------------------------------
A|--------0----------------------------------------------------------------------0--0------
E|---0h2-----------------4--4-----2--2-----0--0-----2--2-----0--0-------0--0---------------
X2

E|----------------------------------------------------------------0---------------------
B|------------2h-3p2-----5-----5--2-----2--2-----2--3-----3-2-----2--0-----0-----2--3---
G|------------2h------2--4-----4--2-----2--2-----2--2-----2-2--------1-----1-----2--4---
D|--------------------------------------------------------------------------------------
A|--------0-----------------------------------------------------------------------------
E|---0h2-----------------4--4-----2--2-----0--0-----2--2----0--0-----0--0-----0--0------

Bridge
E|--------------------------------------------------------------------------------------------
B|--1-----1-----1-----1-----1-----1-----3-----3-----0-----0-----3-----3-----0-----0-----3--0--
G|--0-----0-----0-----0-----2-----2-----2-----2-----0-----0-----2-----2-----0-----0-----2--0--
D|--------------------------------------------------------------------------------------------
A|--3--3-----3--2--2-----2--0--0-----0--------------------------------------------------------
E|--------------------------------------2--2-----2--3--3-----3--2--2-----2--0--0-----0--2--3--

E|--------------------------------------------------------------------------------------
B|--1-----1-----1-----1-----1-----1-----3-----3-----0-----0-----3-----3-----1-----1-----
G|--0-----0-----0-----0-----2-----2-----2-----2-----0-----0-----2-----2-----0-----0-----
D|--------------------------------------------------------------------------------------
A|--3--3-----3--2--2-----2--0--0-----0--------------------------------------------------
E|--------------------------------------2--2-----2--3--3-----3--2--2-----2--0--0-----0--

Finish
E|-----------------------------------------------------------------------------------------
B|------------2h-3p2-----5-----5--2-----2--2-----2--3-----3--3-----3----3-----3--2-----2---
G|------------2h------2--4-----4--2-----2--2-----2--2-----2--2-----2----1-----1--2-----2---
D|-----------------------------------------------------------------------------------------
A|--------0----------------------------------------------------------------------0--0------
E|---0h2-----------------4--4-----2--2-----0--0-----2--2-----0--0-------0--0---------------
X2

Now supports capo and sound effects for vibrato/pull-off/hammer/bends/mutes etc !!! Checkout help section
tabs and chords, guitar tabs, music contests, music covers, songsterr, reverbnation, renditions, tabulature, bollywood chords, ultimate guitar, yousician, guitar lessons, torrins, fender, gibson, acoustic guitar, electric guitar, youtube covers, gootar, guitar tuner, A-Z tabs, 911 tabs