Guitar Tabs for Te Reto A Que Me Olvides

(/) Slide Up  (\) Slide Down  (h) Hammer On  (p) Pull Off  (b) Bend (r) Release (v) Vibrato

Tabs for Song : 

Song lyrics here
E|-----12-11-12-11-12-------12-11-12-14-15-12-
B|--12----------------13-12-------------------
G|--------------------------------------------
D|--------------------------------------------
A|--------------------------------------------
E|--------------------------------------------

Song lyrics here
E|--------7--10-9--8--9--8--7--
B|-----8-----------------------
G|--9--------------------------
D|-----------------------------
A|-----------------------------
E|-----------------------------

Add more lines by placing cursor below and adding notes

E|-----------10-9--8--9--8--7--------7-----
B|--7--8--10-------------------------7-----
G|-----------------------------------9-----
D|----------------------------------------
A|-----------------------------------------
E|-----------------------------------------

E|--8--7-----7--------15------
B|--------10----------------
G|--------------x4--------------
D|--------------------------
A|--------------------------
E|--------------------------
tabs and chords, guitar tabs, music transcription, music technology, deep learning, music information retrieval, transcribe into tabs & chords, chordify, music renditions, songsterr, reverbnation, tabulature, bollywood chords, ultimate guitar, yousician, guitar lessons, acoustic guitar, electric guitar, guitar tuner, 911 tabs