Guitar Tabs for Te Quiero - Hombres G Solo Tab (no Rythm)

(/) Slide Up  (\) Slide Down  (h) Hammer On  (p) Pull Off  (b) Bend (r) Release (v) Vibrato (x) Muted

Tabs for Song : 

Song lyrics here

E|-----------------------------------------------------------------
B|-----------------------------------------------------------------
G|--14h16-14h16-14h16p14-11-12-11\9--9--7-----7---9/11-11-11-9--11v
D|-----------------------------------------9-----------------------
A|-----------------------------------------------------------------
E|-----------------------------------------------------------------

E|--------------------------------------------------------------------------
B|--------------------------------------------------------------------------
G|--9--9---9p7------------------------------------------------7h9--9--9--7--
D|---------------9p-7h-9p-7h-9p7-----------------------7--9-----------------
A|--------------------------------9--10-9-----0--7--9-----------------------
E|-----------------------------------------10-------------------------------

E|-----------------------------17-15-14-15-17-17-17/19-19-17h19-19-19-19-19----
B|-----------------------15----------------------------------------------------
G|--14h16-16-16-16-14-16----16-------------------------------------------------
D|-----------------------------------------------------------------------------
A|-----------------------------------------------------------------------------
E|-----------------------------------------------------------------------------

E|--15-15-15p14-------------------------------------------------------------
B|--------------15-15-------15-------15-------15-17-15-17/19-19b20b19-19-17-
G|--------------------14h16----14h16----14h16-------------------------------
D|--------------------------------------------------------------------------
A|--------------------------------------------------------------------------
E|--------------------------------------------------------------------------


Song lyrics here
E|--
B|--
G|--
D|--
A|--
E|--

Paste any tab in acousterr's tab maker and we'll play it !!!
Now supports capo and sound effects for vibrato/pull-off/hammer/bends/mutes etc !!! Checkout help section
tabs and chords, guitar tabs, music transcription, music technology, deep learning, music information retrieval, transcribe into tabs & chords, chordify, music renditions, songsterr, reverbnation, tabulature, bollywood chords, ultimate guitar, yousician, guitar lessons, acoustic guitar, electric guitar, guitar tuner, 911 tabs