Guitar Tabs for Taquito (idov) (auto-generated)

(/) Slide Up  (\) Slide Down  (h) Hammer On  (p) Pull Off  (b) Bend (r) Release (v) Vibrato (x) Muted

Tabs & Chords
BPM : 98.0
Check Track 2 for Chord Positions 

          Bm                                                          E                 F#    
E|--------------------------2--7--9--10----10----9--9--7--6--9--7--6--9--7--2--0--------------
B|-----------------0--2--3--------------------------------------------------------3--3--4--2--
G|--------------------------------------------------------------------------------------------
D|-----------0--4-----------------------------------------------------------------------------
A|-----2--4-----------------------------------------------------------------------------------
E|--2-----------------------------------------------------------------------------------------

                                              G                    Bm                   A     
E|-----2-----------0--3--3-----0--2--0-----0-----------------2-----------------------------2--
B|-----------2--3-----------------------3-----3--3--2--0--3-----------------3-----0--2--3-----
G|-----------------------------------------------------------------------2--------------------
D|--------------------------------------------------------------------4-----------------------
A|-----------------------------------------------------------------2--------------------------
E|--------------------------------------------------------------------------------------------

                                                                                           D  
E|--3-----2--0--0-----------------3-----------------0--2--5--5--2--3--3--3--0--2--0--0--0-----
B|--------------------2-----2-----------------2--3-----------------------------------------2--
G|--------------------------------------0--2--------------------------------------------------
D|--------------------------------------------------------------------------------------------
A|-----------------------------------0--------------------------------------------------------
E|--------------------------------------------------------------------------------------------

                                  B                                         Em             
E|--0-----2--2--2-----0--2--3--5--7--7--7--3--5--2--3--3--0--2--2--2-----2--2--0-----0--0--
B|--------------------------------------------------------------------4--------------------
G|-----------------------------------------------------------------------------------------
D|-----------------------------------------------------------------------------------------
A|-----------------------------------------------------------------------------------------
E|-----------------------------------------------------------------------------------------

Guitar Tabs for Taquito (idov) (auto-generated)






          Bm                                                          E                 F#    
E|--------2-----------------------------------------------------------0-----------------2-----
B|--------3-----------------------------------------------------------0-----------------2-----
G|--------4-----------------------------------------------------------1-----------------3-----
D|--------4-----------------------------------------------------------2-----------------4-----
A|--------2-----------------------------------------------------------2-----------------4-----
E|--------------------------------------------------------------------0-----------------2-----

                                              G                    Bm                   A     
E|--------------------------------------------3--------------------2--------------------0-----
B|--------------------------------------------3--------------------3--------------------2-----
G|--------------------------------------------4--------------------4--------------------2-----
D|--------------------------------------------5--------------------4--------------------2-----
A|--------------------------------------------5--------------------2--------------------0-----
E|--------------------------------------------3-----------------------------------------------

                                                                                           D  
E|-----------------------------------------------------------------------------------------2--
B|-----------------------------------------------------------------------------------------3--
G|-----------------------------------------------------------------------------------------2--
D|-----------------------------------------------------------------------------------------0--
A|--------------------------------------------------------------------------------------------
E|--------------------------------------------------------------------------------------------

                                  B                                         Em             
E|--------------------------------2-----------------------------------------0--------------
B|--------------------------------4-----------------------------------------0--------------
G|--------------------------------4-----------------------------------------0--------------
D|--------------------------------4-----------------------------------------2--------------
A|--------------------------------2-----------------------------------------2--------------
E|--------------------------------------------------------------------------0--------------

tabs and chords, guitar tabs, music transcription, music technology, deep learning, music information retrieval, transcribe into tabs & chords, chordify, music renditions, songsterr, reverbnation, tabulature, bollywood chords, ultimate guitar, yousician, guitar lessons, acoustic guitar, electric guitar, guitar tuner, 911 tabs