Guitar Tabs for Tanggal 31

(/) Slide Up  (\) Slide Down  (h) Hammer On  (p) Pull Off  (b) Bend (r) Release (v) Vibrato (x) Muted

Tabs for Song : 

Song lyrics here
E|--------------------------------------------------------------------
B|--------------------------------------------------------------------
G|-----2--------------2--4--2-----------6--7--9--7--6--------6--7--9--
D|--2-----2--------2-----------------6--------------------7-----------
A|-----------4--------------------------------------------------------
E|--------------------------------------------------------------------

E|-----------------------------------------------------------------------------------------
B|--------------------------------------------------------------------------7--------------
G|---9\11--9/7------------------7\9--7--6-----6-----------------6--7--9--------9--7--6--4--
D|--------------9--7--6--------------------------9--7--------7-----------------------------
A|-----------------------------------------------------------------------------------------
E|-----------------------------------------------------------------------------------------

E|--------------------------------------9--10-12-10-9--------9--10-12-
B|--------10----------10-12-10-------10-------------------10----------
G|---7\9-----9-----9--------------------------------------------------
D|--------------11----------------------------------------------------
A|--------------------------------------------------------------------
E|--------------------------------------------------------------------

E|--12\14-12/10-------------------10\12-10-9-----9-----------------9--10-12----12\14-12-10-------
B|-----------------12-10-9--------------------------12-10-------10-------------------------9--10-
G|-----------------------------------------------------------------------------------------------
D|-----------------------------------------------------------------------------------------------
A|-----------------------------------------------------------------------------------------------
E|-----------------------------------------------------------------------------------------------

E|--------12-16-16-16----14----------------17-17-16-16-16-14-16-16-------
B|-----14-------------------17-15-14-------------------------------------
G|--14-------------------------------------------------------------------
D|-----------------------------------------------------------------------
A|-----------------------------------------------------------------------
E|-----------------------------------------------------------------------

E|-----------------------------------------------------------------------14-------------
B|-----------------------------14-15-14----15-14----------14-15-17----------17-15-14----
G|--14b14-13-11-13-14-14----------------16-------------14----------------------------16-
D|--------------------------------------------------------------------------------------
A|--------------------------------------------------------------------------------------
E|--------------------------------------------------------------------------------------

Song lyrics here
E|--
B|--
G|--
D|--
A|--
E|--

Paste any tab in acousterr's tab maker and we'll play it !!!
Now supports capo and sound effects for vibrato/pull-off/hammer/bends/mutes etc !!! Checkout help section
tabs and chords, guitar tabs, music transcription, music technology, deep learning, music information retrieval, transcribe into tabs & chords, chordify, music renditions, songsterr, reverbnation, tabulature, bollywood chords, ultimate guitar, yousician, guitar lessons, acoustic guitar, electric guitar, guitar tuner, 911 tabs