Guitar Tabs for Take You Down

(/) Slide Up  (\) Slide Down  (h) Hammer On  (p) Pull Off  (b) Bend (r) Release (v) Vibrato (x) Muted

Tabs for Song : 
E|--
B|--
G|--
D|--
A|--
E|--


Song lyrics here
E|--------------------------------0--3--0--0--3-----
B|--------------------------------0--3--1--2--3-----
G|--------------------------------1--4--0--2--4--5--
D|-----------5--------------------2--5--2--2--5--5--
A|--------7-----7-----------------2--5--3--0--5--3--
E|--3--0-----------8--8--8--7--3--0--3--------3-----

E|--------------------------------------------------------------------------------
B|--------------------------------------------------------------------------------
G|---7/9--9--9--9---------------7/9--9--9--9-----------------------9--9--5--4--2--
D|---7/9--9--9--9---------------7/9--9--9--9-----------------------6--7--5--4--2--
A|---5/7--7--7--7--7--7--5--5---5/7--7--7--7--7--9--9--9--9--5-----7--5--3--2--0--
E|-----------------5--5--3--3-----------------5--7--7--7--7--3-----0--------------

Song lyrics here
E|-----------------------------------------------------------------------------
B|-----5-----7-----5-----7-----5-----3-----3-----------------------------------
G|-----0--7--9--9--0--7--9--9--0--7--0--5--0-----------9--7--------9--7--------
D|-----6--7--8--9--6--7--8--9--6--7--4--5--4-----------6--6--------6--6--------
A|-----7--5--9--7--7--5--9--7--7--5--5--3--5-----------7--7--------7--7--------
E|-----0-----------0-----------0-----------------3--0--0--0--3--0--0--0--3--0--

Paste any tab in acousterr's tab maker and we'll play it !!!
Now supports capo and sound effects for vibrato/pull-off/hammer/bends/mutes etc !!! Checkout help section
tabs and chords, guitar tabs, music transcription, music technology, deep learning, music information retrieval, transcribe into tabs & chords, chordify, music renditions, songsterr, reverbnation, tabulature, bollywood chords, ultimate guitar, yousician, guitar lessons, acoustic guitar, electric guitar, guitar tuner, 911 tabs