Guitar Tabs for Take Me To Church - Hozier


e|-------------------------------------------------------------------------------------------------------------------------------------------------------|
B|--------0--------------------------------------------0--0---3p0-----------------------------------------0--0-------------------------------------------|
G|-----------2--2--0--2--------0--0--------0--2--0------------------2p0--2--0-----0--0--------0--2--0------------2p0---2p0--2--0-----0--0--------0--2--0-|
D|-----------------------2------------0h2------------------------------------------------0h2------------------------------------------------0h2----------|
A|--------------------0-----------------------0--------------------------0-----------------------0--------------------------0-----------------------0----|
E|--0-----------------------0-----------------------3--------------------------0-----------------------0--------------------------0----------------------|

e|----------------------------------------------------------------------------------------------------------------------------------------------|
B|--------0--0---3p0-----------------------------------------------------------------------------0--0-------------------------------------------|
G|---------------------2p0--2--0-----0--0--------0--2--0-----2--2--2--0------0h2--2--2--0--0------------2p0---2p0--2--0-----0--0--------0--2--0-|
D|------------------------------------------0h2-----------0------------------------------------------------------------------------0h2----------|
A|--------------------------0-----------------------0--------------------3-----------------------------------------0-----------------------0----|
E|--3-----------------------------0-----------------------------------------------------------0--------------------------0----------------------|

e|-----------------------------------------------------------------------------------------------------------------------------------0-------------|
B|--------0--0---3p0--------------------------------------------------------------------------------------------------------0-----1------3p1--0----|
G|---------------------2p0--2--0-----0--0--------0--2--0-----2--2--2--0------0h2--2--2--0--0-----2--2---2p0--0---------0h2--0-----0-----------0----|
D|------------------------------------------0h2-----------0------------------------------------------------------0h2--------0-----2-----------0----|
A|--------------------------0-----------------------0--------------------3--------------------3-----------------------------------3----------------|
E|--3-----------------------------0-----------------------------------------------------------------------------------------3-----------------3----|

e|-----------------------------------------3--2--0--0--0--------0-----0--------2--3--2--2--2--2--2--0--2--2--2--2--2--2--0--2--3--3-----------3--7-----0-|
B|---1h3---3p1--0------0h1---1p0--0--------0--------------0--0-----3-----0--0-----------0-----------------0--------------------0-----3---3g5--------3----|
G|---0----------0------0----------0--------0--------------------------------------------2-----------------2--------------------0-------------------------|
D|---2----------0------2----------0----------------------------------------------------------------------------------------------------------------------|
A|---3-----------------3----------------------------------------------------------------2-----------------2----------------------------------------------|
E|--------------3-----------------3--------3--------0-----0-----------0--------------------------------------------------------3-----------------3-------|

e|--------3--3--0--------0--3--3-----3--2--0--0--0--------0-----0--------2--3--2--2--2--2--2--0--2--2--2--2--2--2--0--2--3--3-----------3--7-----0-|
B|--3--------------3--3--------------0--------------0--0-----3-----0--0-----------0-----------------0--------------------0-----3---3g5--------3----|
G|-----------------------------------0--------------------------------------------2-----------------2--------------------0-------------------------|
D|-------------------------------------------------------------------------------------------------------------------------------------------------|
A|--------------------------------------------------------------------------------2-----------------2----------------------------------------------|
E|-----------3-----------------------3--------0-----0-----------0--------------------------------------------------------3-----------------3-------|

e|--------3--3--0--------0--3--3--3--2--0--0----------------------------------------------------------------------------------------------------|
B|--3--------------3--3--------------------------0--0--------------------------------------------0--0---3p0-------------------------------------|
G|------------------------------------------------------2p0---2p0--2--0-----0--0--------2--0------------------2p0--2--0-----0--0--------0--2--0-|
D|-----------------------------------------------------------------2---------------0h2--2--------------------------2---------------0h2-----2----|
A|-----------------------------------------------------------------0--------------------0--------------------------0-----------------------0----|
E|-----------3--------------------------------0--------------------------0--------------------3--------------------------0----------------------|

e|-------------------------------------------------------------------------------------------------------------------------------------------------------------|
B|--------------------------------------------0--0-----------------------------------------------0--0---3p0----------------------------------------------------|
G|--------2--2--2--0------0h2--2---2p0--0------------2p0---2p0--2--0-----0--0--------0--2--0------------------2p0--2--0-----0--0--------0--2--0-----2--2--2--0-|
D|--0-----------------------------------------------------------2---------------0h2--------------------------------2---------------0h2-----------0-------------|
A|--------------------3-----------------------------------------0-----------------------0--------------------------0-----------------------0-------------------|
E|-----------------------------------------0--------------------------0-----------------------3--------------------------0-------------------------------------|

e|--------------------------0--0--0-----0--3--2--0--0--0--------0-----0--------2--3--2--2--2--2--2--0--2--2--2--2--2--2--0--2--3--3-----------3--7-----0-|
B|-----------------------------------3-----0--------------0--0-----3-----0--0-----------0-----------------0--------------------0-----3---3g5--------3----|
G|------0h2--2---2p0--0--------------------0--------------------------------------------2-----------------2--------------------0-------------------------|
D|-------------------------------------------------------------------------------------------------------------------------------------------------------|
A|--3--------------------3--------------------------------------------------------------2-----------------2----------------------------------------------|
E|-----------------------------------------3--------0-----0-----------0--------------------------------------------------------3-----------------3-------|

e|--------3--3--0--------0--3--3--3--2--0--0--0--------0-----0--------2--3--2--2--2--2--2--0--2--2--2--2--2--2--0--2--3--3-----------3--7-----0-|
B|--3--------------3--3-----------0--------------0--0-----3-----0--0-----------0-----------------0--------------------0-----3---3g5--------3----|
G|--------------------------------0--------------------------------------------2-----------------2--------------------0-------------------------|
D|----------------------------------------------------------------------------------------------------------------------------------------------|
A|-----------------------------------------------------------------------------2-----------------2----------------------------------------------|
E|-----------3--------------------3--------0-----0-----------0--------------------------------------------------------3-----------------3-------|

e|--------3--3--0--------0--3--3-----------------------------------2-----------------------------------------------------------------------2-----------2----|
B|--3--------------3--3--------------1--1---1p0--0-----0------0h3--------------0-----0-----------0-----1------------1p0--0-----------0----------------------|
G|-----------------------------------------------------------------------2--------2--------0--------0--------0-----------------0--------0--------2----------|
D|--------------------------------------------------------------------1-----------------2-----------------2-----------------0-----------------1-----------1-|
A|--------------------------------3--------------------------------2--------2--------------------------3--------3--------------------------2--------2-------|
E|-----------3-----------------------------------3--3-----3--------------------------0--------0--------------------------3--------3-------------------------|

e|--------------------------------------------------------------------------------------------2-----------2-----0--3--3-----3--3-------------|
B|--0-----------0-----1------------1p0--0-----------0-----0-----------0-----0-----------0-----------3--------3--1--0--5-----0--4--0---1p0--0-|
G|--------0--------0--------0-----------------0--------0--------2--------2--------0--------0-----2--------------0--0--5-----0--5--0--------0-|
D|-----2-----------------2-----------------0-----------------1-----------------2--------------0--------0-------------------------------------|
A|--------------------3--------3--------------------------2--------2--------------------------------------------3-----3--------3--3----------|
E|--0--------0--------------------------3--------3--------------------------0--------0-----------------------------3--------3--------------3-|

e|--3--2--0--0--0--------0-----0--------2--3--2--2--2--2--2--0--2--2--2--2--2--2--0--2--3--3-----------3--7-----0-----3--3--0--------0--3--3----|
B|--0--------------0--0-----3-----0--0-----------0-----------------0--------------------0-----3---3g5--------3-----3-----------3--3-------------|
G|--0--------------------------------------------2-----------------2--------------------0-------------------------------------------------------|
D|----------------------------------------------------------------------------------------------------------------------------------------------|
A|-----------------------------------------------2-----------------2----------------------------------------------------------------------------|
E|--3--------0-----0-----------0--------------------------------------------------------3-----------------3--------------3----------------------|

e|--3--2--0--0--0--------0-----0--------2--3--2--2--2--2--2--0--2--2--2--2--2--2--0--2--3--3-----------3--7-----0-----3--3--0--------0--3--3----|
B|--0--------------0--0-----3-----0--0-----------0-----------------0--------------------0-----3---3g5--------3-----3-----------3--3-------------|
G|--0--------------------------------------------2-----------------2--------------------0-------------------------------------------------------|
D|----------------------------------------------------------------------------------------------------------------------------------------------|
A|-----------------------------------------------2-----------------2----------------------------------------------------------------------------|
E|--3--------0-----0-----------0--------------------------------------------------------3-----------------3--------------3----------------------|

e|-------------------|
B|-------------------|
G|-------------------|
D|-------------------|
A|-------------------|
E|--3-----2--0-------|
tabs and chords, guitar tabs, music transcription, music technology, deep learning, music information retrieval, transcribe into tabs & chords, chordify, music renditions, songsterr, reverbnation, tabulature, bollywood chords, ultimate guitar, yousician, guitar lessons, acoustic guitar, electric guitar, guitar tuner, 911 tabs