Guitar Tabs for Take Five

Tabs for Song : 
E|--12-15-12-------------------14----------------------12----------------------------------------------
B|-----------13----12-13-14-15----15-12----------12-13----13----------------12----12-13-15-15-12-13-15-
G|--------------14----------------------12-14-15-------------14-11-12-14-15----14----------------------
D|-----------------------------------------------------------------------------------------------------
A|-----------------------------------------------------------------------------------------------------
E|-----------------------------------------------------------------------------------------------------

E|--12-15-12-------------------14----------------------12----------------------
B|-----------13----12-13-14-15----15-12----------12-13----13----------15-13-12-
G|--------------14----------------------12-14-15-------------14-11-14----------
D|-----------------------------------------------------------------------------
A|-----------------------------------------------------------------------------
E|-----------------------------------------------------------------------------


Paste any tab in acousterr's tab maker and we'll play it !!!
Now supports capo and sound effects for vibrato/pull-off/hammer/bends/mutes etc !!! Checkout help section
tabs and chords, guitar tabs, music transcription, music technology, deep learning, music information retrieval, transcribe into tabs & chords, chordify, music renditions, songsterr, reverbnation, tabulature, bollywood chords, ultimate guitar, yousician, guitar lessons, acoustic guitar, electric guitar, guitar tuner, 911 tabs