Guitar Tabs for ????????

Intro
E|-----------0-----3-----------------3-----------------------0-----3-----------------3--------------
B|--------3--------------3--------3--------3-----3--------3--------------3--------3-----------3-----
G|-----0-----------------------0--------------0--------0-----------------------0-----------0-----0--
D|--------------------------------------------------------------------------------------------------
A|--------------------------------------------------3-----------------------------------------------
E|--3-----------------------3-----------------------------------------------3-----------3-----------

E|-----------0------3/7--7--------5--------------------------10--------------0p
B|--------3--------------------5-----5-----8-----7------5/7-----7-----10-7---1p
G|-----0------------------------------------------------5/7------------------2p
D|--------------------------------------------------0------------------------0p
A|--3-----------3-----------0-----------0--------------------------0-----------
E|-----------------------------------------------------------------------------

????????                            ??????????                                       ?????????????
E|-----------0-----3-----------------3-----------------------3-----------------------3--------------
B|--------3--------------3--------3-----------3-----------1--------1-----1--------1--------1-----1--
G|-----0-----------------------0-----------0-----0-----2--------------2--------2--------------2-----
D|--------------------------------------------------------------------------------------------------
A|--------------------------------------------------0-----------------------0-----------------------
E|--3-----------------------3-----------3-----------------------------------------------------------

                               ??????????????
E|-----------2-----------3-----2--------------2--------------3-----------------
B|--------3--------3--------------3--------3-----3--------3--------3-----3-----
G|-----2--------------2--------------2-----------------0--------------0--------
D|--0--------------------------------------------------------------------------
A|-----------------------------------------------------------------------------
E|--------------------------------------------------3------------------------3p

??????????????                       ??????????                                         ????????????
E|-----------0--------3--------------3-----------------------3-----------------------3--------------
B|--------3--------------3--------3-----------3-----------1--------1-----1--------1--------1-----1--
G|-----0-----------------------0-----------0-----0-----2--------------2--------2--------------2-----
D|--------------------------------------------------------------------------------------------------
A|--------------------------------------------------0-----------------------0-----------------------
E|--3--------------3--------3-----------3-----------------------------------------------------------

                   ????????????????
E|-----------2------------2p3--2-----------2-----------------3-----------------
B|--------3--------3--------------3-----------3-----------3--------3-----3-----
G|-----2--------------2--------------2-----------2-----0--------------0--------
D|--0-----------------------------------0--------------------------------------
A|-----------------------------------------------------------------------------
E|--------------------------------------------------3------------------------3p

            C               D        Bm               Em
???????????????????????????????????  ??????????????????????????????

          C             D       Bm             E7        Am       D       
?????????????????????????????  ????????????????????????????????????  ???????? ????????

E|--------------3--------------
B|-----------3-----3-----------
G|--------0-----------0--------
D|-----0-----------------0-----
A|-----------------------------
E|--3-----------------------3--

     C          G            C           G
????????  ????????????  ???????????????  ????????????

     C             G          C
????????  ???????????????  ??????????  ????????????

E|-----
B|-----
G|--0--
D|--0--
A|--2--
E|--3--

????????                            ????????????                                       ???????????
E|-----------3-----------------------3-----------------------3-----------------------3--------------
B|--------3--------3-----3--------3-----------3-----------1-----------1-----------1-----------1-----
G|-----0--------------0--------0-----------0-----0-----2-----------2-----2-----2-----------2-----2--
D|--------------------------------------------------------------------------------------------------
A|--------------------------------------------------0-----------------------0-----------------------
E|--3-----------------------3-----------------------------------------------------------------------

                               ?????????????
E|-----------2-----------2------------0p2-----0--------------3------------------------3p
B|--------3-----------3-----------3--------------3--------3--------3-----3--------3-----
G|-----2-----------2-----------2-----------------------0--------------0--------0--------
D|--0-----------0-----------0--------------0--------------------------------------------
A|--------------------------------------------------------------------------------------
E|--------------------------------------------------3-----------------------3-----------

?????????????                          ????????????                                       ???????????
E|-----------3-----------------------3-----------------------3-----------------------3--------------
B|--------3--------3-----3--------3-----------3-----------1--------1-----1--------1--------1-----1--
G|-----0--------------0--------0-----------0-----0-----2--------------2--------2--------------2-----
D|--------------------------------------------------------------------------------------------------
A|--------------------------------------------------0-----------------------0-----------------------
E|--3-----------------------3-----------------------------------------------------------------------

                   ????????????????
E|------------2/3--2-----------------2-----------------------3-----------------
B|--------3-----------3-----------3--------3-----3--------3--------3-----------
G|-----2-----------------2-----2--------------2--------0--------------0--------
D|--0-----------------------0--------------------------------------------0-----
A|-----------------------------------------------------------------------------
E|--------------------------------------------------3------------------------3p

            C               D        Bm               Em
???????????????????????????????????  ??????????????????????????????

          C             D       Bm             E7        Am       D      G
?????????????????????????????  ????????????????????????????????????  ???????? ????????

     C          G            C           G
????????  ????????????  ???????????????  ????????????

     C             G          
????????  ???????????????  

??????????  
E|-----------3--------3--------
B|--------2-----2--------2-----
G|-----5-----------5--------5--
D|-----------------------------
A|--3--------------------------
E|-----------------------------

????????????

E|--------------3------------------3p
B|-----------3-----3---------------3p
G|--------0-----------0------------0p
D|-----0-----------------0---------0p
A|---------------------------------2p
E|--3------------------------------3p
tabs and chords, guitar tabs, music transcription, music technology, deep learning, music information retrieval, transcribe into tabs & chords, chordify, music renditions, songsterr, reverbnation, tabulature, bollywood chords, ultimate guitar, yousician, guitar lessons, acoustic guitar, electric guitar, guitar tuner, 911 tabs