Guitar Tabs for Swipe

(/) Slide Up  (\) Slide Down  (h) Hammer On  (p) Pull Off  (b) Bend (r) Release (v) Vibrato (x) Muted

Tabs for Song : seeking
Cappo 3rd fret
BPM : 200

Song lyrics here 
       I gave up   I give up   I fucked up I fuck up it I tried hard  I try hard damn my heart Ill stand up
E|--0--0--------0-----------0--0--------0-----------3--3--------3-----------1--1--------1-----------xtw--o
B|--1-----1-----1--1--------1-----1-----1--1--------0-----0-----0--0--------3-----3-----3--3--------
G|--2--------2--2-----2-----0--------0--0-----0-----0--------0--0-----0-----2--------2--2-----2-----
D|--2-----------2--------2--2-----------2--------2--0-----------0--------0--0-----------0--------0--
A|--0-----------0-----------3-----------3-----------2-----------2-----------------------------------
E|--------------------------------------------------3-----------3-----------------------------------
    Ill get up         fuck it all         Ill stand tall    Ill get up
    Ill get up        make it through      Watch me do       what i can do
E|--0--0--------------0--0--------------3--3--------------1--1--------
B|--1-----1-----------1-----1-----------0-----0-----------3-----3-----xtw--o
G|--2--2-----2--------0--0-----0--------0--0-----0--------2--2-----2--
D|--2-----2-----------2-----2-----------0-----0-----------0-----0-----
A|--0--------0--------3--------3--------2--------2-----------------0--
E|--------------------------------------3-----------------------------
    I just wanna be The man Im supposed to
    Shit gets lost ocean to coast through
    Lookin for land I think I can go to
    Some place that I can move all my hopes to
E|--0--0--0--0-----0--0--3-----3--3--1-----1--1--0----xfou--r
B|--1--1--1--1-----1--1--0-----0--0--3-----3--3--1-----
G|--2--2--2--0-----0--0--0-----0--0--2-----2--2--2-----
D|--2--2--2--2-----2--2--0-----0--0--0-----0--0--2-----
A|--0--0--0--3-----3--3--2-----2--2--------------0-----
E|-----------------------3-----3--3--------------------
    even though my hopes never get through
E|--0--0--0--0-----0--0--3-----3--3--0-----0--0-----------
B|--1--1--1--1-----1--1--0-----0--0--0-----0--0-----------
G|--2--2--2--0-----0--0--0-----0--0--0-----0--0-----------
D|--2--2--2--2-----2--2--0-----0--0--2-----2--2-----------
A|--0--0--0--3-----3--3--2-----2--2--2-----2--2-----------
E|-----------------------3-----3--3--0-----0--0-----------

E|--------------------------------xtwo
B|--------------------------------
G|-----7--------5--------2-----0--
D|--7-----7--5-----5--2-----2--0--
A|--------------------------------
E|--------------------------------

                dust n dirt biting brisk fuck all this  dust n dirt is all it is beast n beuty in nothingness
E|--1--1--1--1--1--------------------------------------1--1--------1--1--------------------------------0--0--0--strum block 
B|-----------3-----3-----1--1--------1--1--------------1-----1-----3-----3-----1--1--------1--1--------1--0--1--then first line once
G|-----------2--------2--2-----2-----------------------2--------2--2--------2--2-----2-----------------2--0--2--
D|-----------------------2--------2--2-----2-----------3-----------------------2--------2--2-----2-----2--2--2--
A|-----------------------------------3--------3-----3--3-----------------------------------3--------3--0--2--0--
E|-----------------------------------------------------1--------------------------------------------------0-----

Use manual mode to free up cursor. Paste any tab in acousterr tab maker and we'll play it !!!

E|-------------------------------------------------------------------------------------------------------- 
B|--------------------------------------------------------------------------------------------------------
G|-----7--------5--------2-----0-----7--------5--------2-----0-----7--------5-----------2--------------0--
D|--7-----7--5-----5--2-----2--0--7-----7--5-----5--2-----2--0--7-----7--5-----5--2-----------2--------0--
A|--------------------------------------------------------------------------------------------------------
E|--------------------------------------------------------------------------------------------------------








tabs and chords, guitar tabs, music transcription, music technology, deep learning, music information retrieval, transcribe into tabs & chords, chordify, music renditions, songsterr, reverbnation, tabulature, bollywood chords, ultimate guitar, yousician, guitar lessons, acoustic guitar, electric guitar, guitar tuner, 911 tabs