Guitar Tabs for Swing Life Away

(/) Slide Up  (\) Slide Down  (h) Hammer On  (p) Pull Off  (b) Bend (r) Release (v) Vibrato (x) Muted

Tabs for Song : Swing Life Away
Entire song after intro piece if a cycle of the chords with palm muting. No capo, Standard tuning. 

Song lyrics here
E|--2-----------------------------------------------------------------------------
B|--------------------2-----2--------2-----------------2--------------------------
G|-----------------------------------------------------------------------------1--
D|--------4--4--3--4-----4--4--4--4--------4--3--4--------------4-----4--4--------
A|-----4-----------2--------------------4-----------2-----------------------4-----
E|-----------------------------2--------------------------2--2-----2--------------

E|-----------------
B|-----------------
G|-----------------
D|--4--3--3--4-----
A|-----------------
E|--------------2--
Am I loud and clear, or am I breaking up?
E|--------------0-----------3--------------c
B|--------------0-----------3-----------3--
G|--------------0-----------4--------------
D|--------------2-----------5-----------1--
A|--------------2-----------5-----------2--
E|--------------0-----------3--------------
Am I still your charm, or am I just bad luck?
E|--
B|--
G|--
D|--
A|--
E|--

Are we getting closer, or are we just getting more lost?
E|--
B|--
G|--
D|--
A|--
E|--
I'll show you mine if you show me yours first
Let's compare scars, I'll tell you whose is worse
Let's unwrite these pages and replace them with our own words
E|--
B|--
G|--
D|--
A|--
E|--
We live on front porches and swing life away
We get by just fine here on minimum wage
E|--
B|--
G|--
D|--
A|--
E|--
If love is a labor I'll slave till the end
I won't cross these streets until you hold my hand
E|--
B|--
G|--
D|--
A|--
E|--
I've been here so long, I think that it's time to move
The winter's so cold, summer's over too soon
Let's pack our bags and settle down where palm trees grow
E|--
B|--
G|--
D|--
A|--
E|--
I've got some friends, some that I hardly know
But we've had some times, I wouldn't trade for the world
We chase these days down with talks of the places that we will go
E|--
B|--
G|--
D|--
A|--
E|--
We live on front porches and swing life away
We get by just fine here on minimum wage
If love is a labor I'll slave till the end
I won't cross these streets until you hold my hand....until you hold my hand
E|--
B|--
G|--
D|--
A|--
E|--
I'll show you mine if you show me yours first
Let's compare scars, I'll tell you whose is worse
Let's unwrite these pages and replace them with our own words
E|--
B|--
G|--
D|--
A|--
E|--

Now supports capo and sound effects for vibrato/pull-off/hammer/bends/mutes etc !!! Checkout help section
tabs and chords, guitar tabs, music transcription, music technology, deep learning, music information retrieval, transcribe into tabs & chords, chordify, music renditions, songsterr, reverbnation, tabulature, bollywood chords, ultimate guitar, yousician, guitar lessons, acoustic guitar, electric guitar, guitar tuner, 911 tabs