Guitar Tabs for Sweet Home Alabama - Lynyrd Skynyrd

[Intro]
                              (Riff 1)          (Alternate Riff)
e|-----------------------------------------------------------------------------------
B|-----------3-----------------3-----------------------------------------------------
G|--------------2--0--------------0-----------0-----------------------------0--------
D|--0-----0--------------------------0------------------0h-2p0--------------0--------
A|-----------------------3--3---------------------0h2-----------3------1/2-----------
E|--------------------------------------3--3-----------------------------------3-----

e|-----------------------------------------------------------------------------------
B|-----------3--------------3--------------------------------------------------------
G|--------------2--0-----------0-----------0-----0---2p0--0---4p0--0---5b------------
D|--0-----0-----------------------0--------------------------------------------------
A|--------------------3--3-----------------------------------------------------------
E|-----------------------------------3--3--------------------------------------------


[Verse]
e|-----------------------------3-----------------------------------
B|-----------3-----------------3-----------3-----------------------
G|-----------2-----------------0-----------0-----------------------
D|--0-----0--0--0--------------------------0---------0h-2p0--------
A|-----------------3--x-----3------------------0h2-----------3-----
E|--------------------------------3--x--3--------------------------

e|--------------------3-----------------------------------------
B|-----------3--------3--------3--------------------------------
G|-----------2--------0--------0--------------------------------
D|--0-----0--0-----------------0--------------2--4v-------------
A|--------------3--3-----------------0---2h4--------------------
E|-----------------------3--3-----------------------------------


[Bridge]

You can use this... (recommended)
e|-----------7--7--7--------5--5-----3--3--3--3--3-----
B|-----------7--7--7--------5--5-----3--3--3--3--3-----
G|-----------7--7--7--------5--5-----4--4--4--4--4-----
D|-----------7--7--7--------5--5-----5--5--5--5--5-----
A|---7h-8h9--9--9--9---5h7--7--7-----5--5--5--5--5-----
E|-----------------------------------3--3--3--3--3-----

...or this (or you could add a guitar and play both!)
e|--------------------------------------------------------------------
B|-----------3--3-----------1--1--1--------------0--------------------
G|--------------------------------------------------------------------
D|--2--3--4--------4---1h2-----------2--------------------------2-----
A|--------------------------------------1--2--3------------0h2--------
E|-----------------------------------------------------3--------------


[Chorus]
e|--------------------3-----------------------------------
B|-----------3--------3--------3--------------------------
G|-----------2--------0--------0--------------------------
D|--0-----0--0-----------------0---------0h-2p0-----------
A|--------------3--3---------------0h2-----------3--------
E|-----------------------3--3-----------------------------

e|--------------------3-----------------------------------------------------
B|-----------3--------3--------3--------------------------------------------
G|-----------2--------0--------0-----------0--------0--------0--------0-----
D|--0-----0--0-----------------0------0h2------0h2------0h2------0h2--------
A|--------------3--3--------------------------------------------------------
E|-----------------------3--3-----------------------------------------------

e|--------------------3--------------------------------
B|-----------3--------3--------3-----------------------
G|-----------2--------0--------0-----------------------
D|--0-----0--0-----------------0---------0h-2p0--------
A|--------------3--3---------------0h2-----------3-----
E|-----------------------3--3--------------------------

e|--------------------3-----------------
B|-----------3--------3--------3--------
G|-----------2--------0--------0--------
D|--0-----0--0-----------------0--------
A|--------------3--3--------------------
E|-----------------------3--3-----------


tabs and chords, guitar tabs, music transcription, music technology, deep learning, music information retrieval, transcribe into tabs & chords, chordify, music renditions, songsterr, reverbnation, tabulature, bollywood chords, ultimate guitar, yousician, guitar lessons, acoustic guitar, electric guitar, guitar tuner, 911 tabs