Guitar Tabs for Sweet Child O Mine - Guns n Roses Tabs

(/) Slide Up  (\) Slide Down  (h) Hammer On  (p) Pull Off  (b) Bend (r) Release (v) Vibrato

Sweet Child O Mine - Guns & Roses Tabs

Legendary Guitar Intro
E|--------------15----14----------------15----14----
B|-----15----------------------15-------------------
G|--------14-12----14----14-------14-12----14----14-
D|--12----------------------12----------------------
A|--------------------------------------------------
E|--------------------------------------------------

E|--------------15----14----------------15----14----
B|-----15----------------------15-------------------
G|--------14-12----14----14-------14-12----14----14-
D|--14----------------------14----------------------
A|--------------------------------------------------
E|--------------------------------------------------

E|--------------15----14----------------15----14----
B|-----15----------------------15-------------------
G|--------14-12----14----14-------14-12----14----14-
D|--12----------------------12----------------------
A|--------------------------------------------------
E|--------------------------------------------------


E|--------------------------15-15-------------------
B|--17-17-15-15-17-17-19-19-------19-19-17-17-15-15-
G|--------------------------------------------------
D|--------------------------------------------------
A|--------------------------------------------------
E|--------------------------------------------------




She's got a smile it seems to me Reminds me of childhood memories
E|--17-17-17-15-17----15-14-15----14----------15----14----15-14----15-14-------
B|-----------------------------------15----15----------15----------------15----
G|-----------------------------------------------------------------------------
D|-----------------------------------------------------------------------------
A|-----------------------------------------------------------------------------
E|-----------------------------------------------------------------------------

Where everything Was as fresh as the bright blue sky
E|-----15-14----15-14----15-15-17-15-14----
B|--15-------15-------15-------------------
G|-----------------------------------------
D|-----------------------------------------
A|-----------------------------------------
E|-----------------------------------------

Now and then when I see her face She takes me away to that special place
E|--17-17----15-17----15-14-15-17----------17----15-14----15-14----15-15-17-------
B|-----------------------------------17----------------15-------15----------17----
G|--------------------------------------------------------------------------------
D|--------------------------------------------------------------------------------
A|--------------------------------------------------------------------------------
E|--------------------------------------------------------------------------------

And if I'd stare too long I'd probably break down and cry
E|-----15-14-15-14-15-15-15-17-15-14-
B|--15-------------------------------
G|-----------------------------------
D|-----------------------------------
A|-----------------------------------
E|-----------------------------------

tabs and chords, guitar tabs, music transcription, music technology, deep learning, music information retrieval, transcribe into tabs & chords, chordify, music renditions, songsterr, reverbnation, tabulature, bollywood chords, ultimate guitar, yousician, guitar lessons, acoustic guitar, electric guitar, guitar tuner, 911 tabs