Ukulele Tabs for Sweet Child 'o Mine

(/) Slide Up  (\) Slide Down  (h) Hammer On  (p) Pull Off  (b) Bend (r) Release (v) Vibrato

Tabs for Song : Sweet Child o Mine Ukulele Intro

Part 1
A|--------------8-----7-----------------8-----7-----
E|-----8-----------------------8--------------------
C|--0--------5--------------0--------5--------------
G|--------0--------0-----0--------0--------0-----0--

Part 2
A|-----3--------8-----7--------3--------8-----7-----
E|--------------------------------------------------
C|--2--------5--------------2--------5--------------
G|--------0--------0-----0--------0--------0-----0--

Part 3
A|--------------8-----7-----------------8-----7-----
E|-----8-----------------------8--------------------
C|--5--------5--------------5--------5--------------
G|--------0--------0-----0--------0--------0-----0--

Part 4

A|--5-----3-----5-----7-----8-----7-----5-----3--
E|-----------------------------------------------
C|-----------------------------------------------
G|-----0-----0-----0-----0-----0-----0-----0-----

Now supports capo and sound effects for vibrato/pull-off/hammer/bends etc !!! Checkout help section
tabs and chords, guitar tabs, music transcription, music technology, deep learning, music information retrieval, transcribe into tabs & chords, chordify, music renditions, songsterr, reverbnation, tabulature, bollywood chords, ultimate guitar, yousician, guitar lessons, acoustic guitar, electric guitar, guitar tuner, 911 tabs