Guitar Tabs for Sweep Duals Practice

(/) Slide Up  (\) Slide Down  (h) Hammer On  (p) Pull Off  (b) Bend (r) Release (v) Vibrato (x) Muted

Tabs for Song : 
BPM : 200

Song lyrics here 
E|--13-11----------11-13----15-13----------13-15-13----------13-15----15-13----------13-15----13-11----------11-13-
B|--------12----12----------------14----14----------14----14----------------13----13----------------11----11-------
G|-----------11----------------------13----------------13----------------------13----------------------11----------
D|-----------------------------------------------------------------------------------------------------------------
A|-----------------------------------------------------------------------------------------------------------------
E|-----------------------------------------------------------------------------------------------------------------

Song lyrics here 
E|--15----15-13----------13-15----15-14----------14-15-------12-12-11-------12-14-13-14-12-14-13-14-13-13-14-13-15-14-15-
B|--15----------14----14----------------15----15----------12----------11-------------------------------------------------
G|--15-------------14----------------------15----------------------------------------------------------------------------
D|--14-------------------------------------------------------------------------------------------------------------------
A|--14-------------------------------------------------------------------------------------------------------------------
E|--13-------------------------------------------------------------------------------------------------------------------

E|--15-15-15-15-15-13-------------------------13-13-13-15-13-13-13----------------13-11----------11-13v---14b---14b---14b
B|--------------------14-------------14-14-14----------------------14-------------------12----12-------------------------
G|-----------------------13-13-13-13----------------------------------13-13-13-------------11----------------------------
D|-----------------------------------------------------------------------------------------------------------------------
A|-----------------------------------------------------------------------------------------------------------------------
E|-----------------------------------------------------------------------------------------------------------------------

E|--14-12-------------12-14----14-12----------------12-14-12----------------12-14----16----------14----------------14v
B|--------13-------13----------------13----------13----------13----------13-------------15----------15----------15----
G|-----------12-13----------------------12-13-12----------------12-14-12-------------------15----------16----16-------
D|--------------------------------------------------------------------------------------------------------------------
A|--------------------------------------------------------------------------------------------------------------------
E|--------------------------------------------------------------------------------------------------------------------

Use manual mode to free up cursor. Paste any tab in acousterr tab maker and we'll play it !!!

Guitar Tabs for Sweep Duals Practice






E|--------------------------18-16----------16-18-16----------16-18----------------------------16-14----------14-16-
B|--------------------------------17----17----------17----17----------------------------------------15----15-------
G|-----------------------------------16----------------16----------------------------------------------14----------
D|-----------------------------------------------------------------------------------------------------------------
A|-----------------------------------------------------------------------------------------------------------------
E|-----------------------------------------------------------------------------------------------------------------


E|--------------------------------16-14----------14-16-------16-15-15-------15-17-16-17-15-17-16-17-15-17-16-17-15-19-18)
B|--------------------------------------15----15----------16----------15-------------------------------------------------
G|-----------------------------------------14----------------------------------------------------------------------------
D|-----------------------------------------------------------------------------------------------------------------------
A|-----------------------------------------------------------------------------------------------------------------------
E|-----------------------------------------------------------------------------------------------------------------------

E|--12-12-12-12-12-10-------------------------10-10-10-10-10-10-10----------------10-11----------11-12v---14b---14b---14b
B|--------------------11-------------11-11-11----------------------11----------11-------11----11-------------------------
G|-----------------------10-10-10-10----------------------------------10-10-10-------------11----------------------------
D|-----------------------------------------------------------------------------------------------------------------------
A|-----------------------------------------------------------------------------------------------------------------------
E|-----------------------------------------------------------------------------------------------------------------------

E|--16-14----------------14-16-14----------------14-16-16-14----------------14-16----14----------15----------------15v
B|--------15----------15----------15----------15-------------15----------15-------------15----------16----------16----
G|-----------14-16-14----------------14-16-14-------------------14-15-14-------------------16----------17----17-------
D|--------------------------------------------------------------------------------------------------------------------
A|--------------------------------------------------------------------------------------------------------------------
E|--------------------------------------------------------------------------------------------------------------------

tabs and chords, guitar tabs, music transcription, music technology, deep learning, music information retrieval, transcribe into tabs & chords, chordify, music renditions, songsterr, reverbnation, tabulature, bollywood chords, ultimate guitar, yousician, guitar lessons, acoustic guitar, electric guitar, guitar tuner, 911 tabs