Guitar Tabs for Suteki Da Ne

(/) Slide Up  (\) Slide Down  (h) Hammer On  (p) Pull Off  (b) Bend (r) Release (v) Vibrato (x) Muted

Tabs for Song : 
BPM : 200

Song lyrics here 
E|--------------------------0-----1--0--------------0-----------------------------------------------
B|--------0--1--0-----1--3--------------3--------3--------3--1--0--------0--1-----0--------------0--
G|--2-----------------------------------------0-----------------------0--------2-----2--0-----0-----
D|-----2-----------0-----------2-----------0-----------2-----------0-----------------------2--------
A|--0-----------------------3-----------------------3-----------------------------------------------
E|--------------3-----------------------3-----------------------3-----------0-----------0-----------

E|--------------------------0-----1--0--------------0--------------------------------------------0--
B|--------0--1--0-----1--3--------------3-----------------3--1--0---------------------------1h3-----
G|--2-----------------------------------------0--------2--------------0---0h2--2--------2-----------
D|-----2-----------0-----------2-----------0--------3--------------0-----------------2--------------
A|--0-----------------------3-----------3---------------------------------0h0--0--------------------
E|--------------3-----------------------------------------------3-----------------------------------

E|--0-----3--------------0-----------------------0-----3--------------0--------------------------0--
B|-----------3--------3--------3--1--0-----1--3-----------3-----1--0--1---------------------1h3-----
G|-----------------0-----------------------------------------0--------2-----------------2-----------
D|-----2--------0-----------2-----------0-----------2-----------------3--------------2--------------
A|--3--------------------3-----------------------3--------3-----------0-----------------------------
E|-----------3-----------------------3--------------------------------------------------------------

E|--0-----3--------------0-----------------------0-----3--7-----3--5--5--------5-------------5\3\1--
B|-----------3--------3--------3--1--0-----1--3-----------------------------0--------0--------------
G|-----------------0-----------------------------------------0-----------0--------0-----------------
D|-----2--------0-----------2-----------0-----------2-----------------3-----------------------------
A|--3--------------------3-----------------------3--------------------------------------------------
E|-----------3-----------------------3--------------------3-----------------------------------------

E|--0--------0--------0-----3-----0--------------------------0----------0-----3-----0--------0------
B|--------------------------------------0--------1--1----------------------------------0--3---------
G|--------0--------0--------------------------2-----------2--------2----------------------------0---
D|-----2--------2-----------------------------3--------3--------3-----------------------------------
A|--------------------------------------------------------------------------------------------------
E|--0-------------------------------------------------------------------------------------0---------

E|--------0---3\7--7---3\5--5--------5--------5-----0-----------------------------------------------
B|--------------------------------0--------0--------1-----------------------------------------------
G|-----0-----------------------0--------0-----------2-----------------------------------------------
D|--2-----------------------3-----------------------2-----------------------------------------------
A|--------------------------------------------------0-----------------------------------------------
E|--------------------------------------------------------------------------------------------------

E|--
B|--
G|--
D|--
A|--
E|--

E|--
B|--
G|--
D|--
A|--
E|--

E|--
B|--
G|--
D|--
A|--
E|--

E|--
B|--
G|--
D|--
A|--
E|--

E|--
B|--
G|--
D|--
A|--
E|--
tabs and chords, guitar tabs, music transcription, music technology, deep learning, music information retrieval, transcribe into tabs & chords, chordify, music renditions, songsterr, reverbnation, tabulature, bollywood chords, ultimate guitar, yousician, guitar lessons, acoustic guitar, electric guitar, guitar tuner, 911 tabs