Sushi Addict - Bass Tabs

(/) Slide Up  (\) Slide Down  (h) Hammer On  (p) Pull Off  (b) Bend (r) Release (v) Vibrato (x) Muted

Sushi Addict

Verse
I'm a sushi addict, I'm a sushi addict, you make me sick but I'll eat it again
G|--------------------------------------------------------------------
D|--------------------------------------------------------------------
A|--------------------------------------------------------------------
E|--2--2--2--2-----2--2--2--2-----2--2--2--2--0--0--0--0--0--2--2--2--

Chorus
I'll eat it again x 6 
I'll eat it!
G|--------------------------------------------------------------etc
D|--------2--4--4--------2--4--4--------2--4--4--------2--4--4--
A|--4--------------4--------------4--------------4--------------
E|--------------------------------------------------------------

Verse (same as before)

2nd Chorus
Sushi! addict! etc

G|--------------------------
D|--------4--4--------4--4--
A|--4--4--------4--4--------
E|--------------------------

tabs and chords, guitar tabs, music transcription, music technology, deep learning, music information retrieval, transcribe into tabs & chords, chordify, music renditions, songsterr, reverbnation, tabulature, bollywood chords, ultimate guitar, yousician, guitar lessons, acoustic guitar, electric guitar, guitar tuner, 911 tabs