Bass Tabs for Surf Medley


Tabs for Song : Surf Medley

Hawaii 5-0

G|-----------------------------------------------------------------------
D|-----------------------------1--1--------------------------------------
A|--3--3-----1--1-----3--3--------------3--3-----1--1--------------------
E|--------------------------------------------------------3--3-----3--3--

G|--------------------------------------------------------------
D|--------------------------------------1-----------------------
A|-----3--3-----3--3-----------------------3--3-----1--1-----3--
E|-----------------------1--1-----3--3--------------------------

Wipeout

G|-----------------------------
D|-----------------------------
A|-----1--2--3--3--3--1--------
E|--3--------------------3--3--


G|-----------------------------
D|-----1--2--3--3--3--1--------
A|--3--------------------3--3--
E|-----------------------------

G|--------------------------------
D|--------------------------------
A|-----0--1--2--3--3--3--1--------
E|--3-----------------------3--3--


G|--------------------------------------------------
D|-----3--4--5--5--5--3--------5-----3--3--3--1-----
A|--5--------------------5--5--------------------3--
E|--------------------------------------------------

G|-----------------------------------------------------
D|-----------------------------------------------------
A|-----1--2--3--3--3--1--------1-----------------------
E|--3--------------------3--3--------3--3--3--3--3--3--


















Walk Don't Run

G|--------------------------------
D|--------------------------------
A|--------------------------------
E|--5--5--5--3--3--3--1--1--1--0--

G|-----------------------------------
D|-----------------------------------
A|--3--3--------------3--3-----------
E|-----------3--3--------------0--0--

G|--------------------------------
D|--------------------------------
A|--------------------------------
E|--5--5--5--3--3--3--1--1--1--0--

G|-----------------------------------------------
D|--------------------------------3--3--3--------
A|--3--3--------------3--3--3-----------------3--
E|-----------3--3--------------------------------

G|-----------------------------------------------------------------------------
D|--------------------------------------------------------------2--2--0--------
A|--3--3-----3--3-----0--0-----0--0-----------------------0--------------3--2--
E|--------------------------------------1--1-----0--0--------------------------

G|--------------------------------
D|--------------------------------
A|--------------------------------
E|--5--5--5--3--3--3--1--1--1--0--

G|-----------------------------------------
D|-----------------------------3--3--3-----
A|--3--3--------------3--3--3-----------3--
E|-----------3--3--------------------------

Pipeline

G|--------------------------
D|--------------------------
A|--------------------------
E|--0--0--3--3--0--0--3--3--

G|--------------------------
D|--------------------------
A|--0--0--3--3--0--0--3--3--
E|--------------------------

G|-----------------------
D|-----------------------
A|-----------------------
E|--0--0--3--3--0--0--3--

G|------------------------------------------------------------
D|-----------------------------------------------------------
A|--2--2-----3--3-----2--2-----3--3-----2--2-----2--2-----0--
E|-----------------------------------------------------------

G|--------------------------
D|--------------------------
A|--------------------------
E|--0--0--3--3--0--0--3--3--

G|-----------------------------------------------------
D|-----------------------------------------------------
A|--2--2-----3--3-----2--2-----3--3-----2--2-----2--2--
E|-----------------------------------------------------

G|-----------------------------------------------------------------------
D|-----------------------------------------------------------------------
A|-----------------------------------------------------------------------
E|--5--5-----5--5-----3--3-----3--3-----1--1-----1--1-----3--3-----3--3--

G|-----------------------------------------------------------
D|-----------------------------------------------------------
A|-----------------------------------------------------------
E|--5--5-----5--5-----3--3-----3--3-----1--1-----1--1-----0--


tabs and chords, guitar tabs, music transcription, music technology, deep learning, music information retrieval, transcribe into tabs & chords, chordify, music renditions, songsterr, reverbnation, tabulature, bollywood chords, ultimate guitar, yousician, guitar lessons, acoustic guitar, electric guitar, guitar tuner, 911 tabs