Bass Tabs for Superman

(/) Slide Up  (\) Slide Down  (h) Hammer On  (p) Pull Off  (b) Bend (r) Release (v) Vibrato (x) Muted

Tabs for Song : 

Song lyrics here
G|--------------------------------------------------------2--2--2--------
D|--4--4--2--4--2--4--4--4--2--4--2--4--4--4--2--4--2--4-----------2--2--
A|-----------------------------------------------------------------------
E|-----------------------------------------------------------------------

G|--------------------------------------------------------4--4--4--------
D|--4--4--2--4--2--4--4--4--2--4--2--4--4--4--2--4--2--4-----------2--2--
A|-----------------------------------------------------------------------
E|-----------------------------------------------------------------------

G|--------------------------------------------------------2--2--2--------
D|--4--4--2--4--2--4--4--4--2--4--2--4--4--4--2--4--2--4-----------2--2--
A|-----------------------------------------------------------------------
E|-----------------------------------------------------------------------

G|--------------------------------------------------------6--6--6--6--6--6--
D|--4--4--2--4--2--4--4--4--2--4--2--4--4--4--2--4--2--4--------------------
A|--------------------------------------------------------------------------
E|--------------------------------------------------------------------------

G|--------9--9-----------9--9-----11-11-9--9--7--11-11-7--7--9--
D|--7--7--------7--6--6--------6--------------------------------
A|--------------------------------------------------------------
E|--------------------------------------------------------------

G|--------9--9-----------9--9-----7--7--6--6-----7--7--6--6-----
D|--7--7--------7--6--6--------6--------------9--------------9--
A|--------------------------------------------------------------
E|--------------------------------------------------------------

G|--------6--6--------------------7--7--6--6-----7--7--6--6-----
D|--7--7--------7--6--6--9--9--6--------------9--------------9--
A|--------------------------------------------------------------
E|--------------------------------------------------------------

G|--------9--9-----------9--9-----11-11-11-11-11-11-13-13-13-13-13-13-13-
D|--7--7--------7--6--6--------6-----------------------------------------
A|-----------------------------------------------------------------------
E|-----------------------------------------------------------------------

G|--7--7-----------9--9-----------------------------------------------
D|--------------------------------------------------------------------
A|--------5--5--5--------7--7--7--9--9--7--9--7--9--9--9--7--9--7--7--
E|--------------------------------------------------------------------

G|--7--7-----------9--9-----------------------------------------------
D|--------------------------------------------------------------------
A|--------5--5--5--------7--7--7--9--9--7--9--7--9--9--9--7--9--7--9--
E|--------------------------------------------------------------------

G|--7--7-----------9--9-----------9--9--7--7--6--6--6--6--7--7--7--7--9--9--9--9--
D|--------------------------------------------------------------------------------
A|--------5--5--5--------7--7--7--------------------------------------------------
E|--------------------------------------------------------------------------------

G|--
D|--
A|--
E|--

Paste any tab in acousterr's tab maker and we'll play it !!!
Now supports capo and sound effects for vibrato/pull-off/hammer/bends/mutes etc !!! Checkout help section
tabs and chords, guitar tabs, music transcription, music technology, deep learning, music information retrieval, transcribe into tabs & chords, chordify, music renditions, songsterr, reverbnation, tabulature, bollywood chords, ultimate guitar, yousician, guitar lessons, acoustic guitar, electric guitar, guitar tuner, 911 tabs