Guitar Tabs for Super Smash Bros. Ultimate (main Theme)

E|-----------------10-9-----9--12-------------------------------------10-12----
B|-----------------------12----------13-12-10----10-12-10----10----10----------
G|--9--11-12-9--12----------------------------12----------12----11-------------
D|-----------------------------------------------------------------------------
A|-----------------------------------------------------------------------------
E|-----------------------------------------------------------------------------

E|-----------------------------------------------------
B|-----10-------------10-12-10-------10----------------
G|--12----11-9--11-12-------------12----11-9-----9-----
D|--------------------------------------------12-------
A|-----------------------------------------------------
E|-----------------------------------------------------

E|--------------------------------------------------------10-------
B|-----10-------------10-12-10-------------------------10----12----
G|--12----11-9--11-12-------------11----9-----9--11-12-------------
D|-----------------------------------12----------------------------
A|-----------------------------------------------------------------
E|-----------------------------------------------------------------

E|-----------------------------------------------------
B|-----10-------------10-12-10-------10----------------
G|--12----11-9--11-12-------------12----11-9-----9-----
D|--------------------------------------------12-------
A|-----------------------------------------------------
E|-----------------------------------------------------

E|--------------------------------------------------------10-------
B|-----10-------------10-12-10-------------------------10----12----
G|--12----11-9--11-12-------------11----9-----9--11-12-------------
D|-----------------------------------12----------------------------
A|-----------------------------------------------------------------
E|-----------------------------------------------------------------

E|--------------------------------------------------------------------------------------
B|--10----------------12-------------------------------10----------13-12-10-10----10-12-
G|-----12-10-12----------12-9-----------------------------9--8--11-------------12-------
D|--------------12-------------12-12-10----10-9--10-7-----------------------------------
A|--------------------------------------------------------------------------------------
E|--------------------------------------------------------------------------------------

E|-----------------------------------------------------
B|-----10-------------10-12-10-------10----------------
G|--12----11-9--11-12-------------12----11-9-----9-----
D|--------------------------------------------12-------
A|-----------------------------------------------------
E|-----------------------------------------------------

E|--------------------------------------------------------10-------
B|-----10-------------10-12-10-------------------------10----12----
G|--12----11-9--11-12-------------11----9-----9--11-12-------------
D|-----------------------------------12----------------------------
A|-----------------------------------------------------------------
E|-----------------------------------------------------------------

E|--------------------------------------------------------------------------------------
B|--10----------------12-------------------------------10----------13-12-10-10----10-12-
G|-----12-10-12----------12-9-----------------------------9--8--11-------------12-------
D|--------------12-------------12-12-10----10-9--10-7-----------------------------------
A|--------------------------------------------------------------------------------------
E|--------------------------------------------------------------------------------------

E|--------------------------------------12-------12-10-------------
B|--------------------11-11-9--9--9--9-----------------------------
G|--12-12-10-10-10-10----------------------------------12-11-9-----
D|-----------------------------------------------------------------
A|-----------------------------------------------------------------
E|-----------------------------------------------------------------

E|--------------------------------------------------------------------
B|-----------------4--3-----3-----------------------------------------
G|-----------------------5-----3-----------3--3--3--3--5--5--6--6-----
D|--3--5--6--3--6--------------------6--6-----------------------------
A|--------------------------------------------------------------------
E|--------------------------------------------------------------------

E|--------------------------------------------------------------12-
B|-----------------3-----------------3-----6--9--11----------10----
G|--3--5--2--3--5-----5--------3--5-----5-----------------11-------
D|-----------------------3--6--------------------------------------
A|-----------------------------------------------------------------
E|-----------------------------------------------------------------

E|-----------------10-9-----9-----------------------------------------
B|-----------------------12----10----13-12-10----10-12-10----10-------
G|--9--11-12-9--12----------------------------12----------12----11----
D|--------------------------------------------------------------------
A|--------------------------------------------------------------------
E|--------------------------------------------------------------------

E|-----------------10-9-----9--12-------------------------------------
B|-----------------------12----------13-12-10----10-12-10----10-------
G|--9--11-12-9--12----------------------------12----------12----11----
D|--------------------------------------------------------------------
A|--------------------------------------------------------------------
E|--------------------------------------------------------------------

E|-----------------10-9-----9-----------------------------------------
B|-----------------------12----10----13-12-10----10-12-10----10-------
G|--9--11-12-9--12----------------------------12----------12----11----
D|--------------------------------------------------------------------
A|--------------------------------------------------------------------
E|--------------------------------------------------------------------

E|-----------------10-9-----9--12-------------------------------------
B|-----------------------12----------13-12-10----10-12-10----10-------
G|--9--11-12-9--12----------------------------12----------12----11----
D|--------------------------------------------------------------------
A|--------------------------------------------------------------------
E|--------------------------------------------------------------------

E|--15----14----12-------17----15----14----------13----18-15----
B|--------------------15-------------------15-------16----------
G|--------------------------------------------------------------
D|--------------------------------------------------------------
A|--------------------------------------------------------------
E|--------------------------------------------------------------

E|-----------------11-10----10----------------------------------------
B|-----------------------13----11----14-13-11----11-13-11----11-------
G|--10-12-13-10-13----------------------------13----------13----12----
D|--------------------------------------------------------------------
A|--------------------------------------------------------------------
E|--------------------------------------------------------------------

E|-----------------11-10----10-13-------------------------------------
B|-----------------------13----------14-13-11----11-13-11----11-------
G|--10-12-13-10-13----------------------------13----------13----12----
D|--------------------------------------------------------------------
A|--------------------------------------------------------------------
E|--------------------------------------------------------------------

E|-----------------11-10----10----------------------------------------
B|-----------------------13----11----14-13-11----11-13-11----11-------
G|--10-12-13-10-13----------------------------13----------13----12----
D|--------------------------------------------------------------------
A|--------------------------------------------------------------------
E|--------------------------------------------------------------------

E|-----------------11-10----10-13-------------------------------------
B|-----------------------13----------14-13-11----11-13-11----11-------
G|--10-12-13-10-13----------------------------13----------13----12----
D|--------------------------------------------------------------------
A|--------------------------------------------------------------------
E|--------------------------------------------------------------------

E|--------------------------------------------------------------------11-13-
B|--14-13-11----11-13-11----11-------14-13-11----11-13-11----11----11-------
G|-----------13----------13----12-------------13----------13----12----------
D|--------------------------------------------------------------------------
A|--------------------------------------------------------------------------
E|--------------------------------------------------------------------------

Paste any tab in acousterr's tab maker and we'll play it !!!
Now supports capo and sound effects for vibrato/pull-off/hammer/bends/mutes etc !!! Checkout help section
tabs and chords, guitar tabs, music transcription, music technology, deep learning, music information retrieval, transcribe into tabs & chords, chordify, music renditions, songsterr, reverbnation, tabulature, bollywood chords, ultimate guitar, yousician, guitar lessons, acoustic guitar, electric guitar, guitar tuner, 911 tabs